Good Charlotte - Screamer Chords & Tabs

 

Screamer Chords & Tabs

Good Charlotte Chords & Tabs

Version: 2 Type: Tab 0 ratings
1 star 2 stars 3 stars 4 stars 5 stars
comments

Screamer Tab

------------------------------------------------------------------------------- 
SCREAMER - Good Charlotte 
------------------------------------------------------------------------------- 

By: dan aka "jugs" (Hiddenagenda@minorthreat.com) 

This is my first tab, so cut me some slack, the intros and solos are probably 
wrong but they sound good to me, and it's what i play. enjoy. 

Intro: (2x alone, then 2x w/Guitar 2) 
Lets say...Guitar 1 
e|-------12-11--------12-11-----------12-11--------12-11---------------------| 
B|----12-----------12--------------12-----------12---------------------------| 
G|--9------------9---------------9------------9-------------9-hold-----------| 
D|------------------------------------------------------------last-time------| 
A|-------------------------------------------------------------only----------| 
E|---------------------------------------------------------------------------| 

Lets say...Guitar 2 (come in Third time..Acoustic/clean) 
e|---------------------------------------------------------------------------| 
B|---------------------------------------------------------------------------| 
G|---------------4-4-4--4--44----2--2--22-----4-4-4--4--44-------------------| 
D|--2--2--22-----4-4-4--4--44----2--2--22-----4-4-4--4--44--2-hold-----------| 
A|--2--2--22-----2-2-2--2--22----0--0--00-----2-2-2--2--22--2-last-time------| 
E|--0--0--00------------------------------------------------0--only----------| 
** ** ** ** 
For the notes with the stars under them- its just something i do whhen changing 
chords, optional, light strums. 

Verse 1: (mostly bass, play something like what i have down for the guitar) 
Guitar 1 
e|---------------------------------------------------------------------------| 
B|------9-------9-----------10p9---------------------------------------------| 
G|--9-------9-------9---9--------9---Play-that-------------------------------| 
D|----9-------9-------9---9--------9----about-two-or-three-------------------| 
A|-----------------------------------------times..---------------------------| 
E|---------------------------------------------------------------------------| 
communication is a lot like the wind 
when i speak, it's like no one understand 
and i'm left with empty hands, forever i can't speak 

e|---------------------------------------------------------------------------| 
B|------9------12-10-9------------------i-totally-made-that-part-up..--------| 
G|--9------9-----------9-----------play-that-or-a-variation-of-that----------| 
D|----9------9-----------9---------------i-think-two-or-three-times----------| 
A|---------------------------------------------------------------------------| 
E|---------------------------------------------------------------------------| 
so many things i'll never learn, 
you can't cross bridges that you've burned 

Pre-Chorus(we'll just call it that.): 
Guitar 1 
e|---------------------------------------------------------------------------| 
B|----12-10-9------12-10-9---------12-10-9------12-10-9----something-like----| 
G|--9------------9---------------9------------9--------------that------------| 
D|---------------------------------------------------------------------------| 
A|---------------------------------------------------------------------------| 
E|---------------------------------------------------------------------------| 

Guitar 2 (acoustic/clean..whatever) 
e|---------------------------------------------------------------------------| 
B|---------------------------------------------------------------------------| 
G|---------------4-4-4--4--44----2--2--22-----4-4-4--4--44-------------------| 
D|--2--2--22-----4-4-4--4--44----2--2--22-----4-4-4--4--44-------------------| 
A|--2--2--22-----2-2-2--2--22----0--0--00-----2-2-2--2--22-------------------| 
E|--0--0--00-----------------------------------------------------------------| 

Chorus: Both Guitars (4x) 

Both guitars (Play with one guitar distorted and one acoustic/clean..) 
e|---------------------------------------------------------------------------| 
B|---------------------------------------------------------------------------| 
G|---------------4-4-4--4--44----2--2--22-----4-4-4--4--44-------------------| 
D|--2--2--22-----4-4-4--4--44----2--2--22-----4-4-4--4--44-------------------| 
A|--2--2--22-----2-2-2--2--22----0--0--00-----2-2-2--2--22-------------------| 
E|--0--0--00-----------------------------------------------------------------| 
why is life such an issue in your mind 
why are the answers to my problems hard to find 
so hard to find, so hard to find 

Post Chous: 2x..i play guitar 2 as acoustic, but it's 
distorted... 

Guitar 1 
e|-------12-11--------12-11-----------12-11--------12-11---------------------| 
B|----12-----------12--------------12-----------12---------------------------| 
G|--9------------9---------------9------------9--------------9--hold-last----| 
D|---------------------------------------------------------------time-only---| 
A|---------------------------------------------------------------------------| 
E|---------------------------------------------------------------------------| 

Guitar 2 
e|---------------------------------------------------------------------------| 
B|---------------------------------------------------------------------------| 
G|---------------4-4-4--4--44----2--2--22-----4-4-4--4--44-------------------| 
D|--2--2--22-----4-4-4--4--44----2--2--22-----4-4-4--4--44-------------------| 
A|--2--2--22-----2-2-2--2--22----0--0--00-----2-2-2--2--22-------------------| 
E|--0--0--00-----------------------------------------------------------------| 

Verse 2: alrighty, i'm going to say that Guitar 2 does this acoustic, then 
on about the third time, Guitar 1 comes in.. 

Guitar 2 - Acoustic/Clean..you get the idea, just not distorted 
and i just changed these to the real chord/barre chord form..to 
get those higher notes in. 
e|--0--0--00-----2-2-2--2--22----0--0--00-----2-2-2--2--22----play-two-------| 
B|--0--0--00-----4-4-4--4--44----2--2--22-----4-4-4--4--44-------times-------| 
G|--1--1--11-----4-4-4--4--44----2--2--22-----4-4-4--4--44-------------------| 
D|--2--2--22-----4-4-4--4--44----2--2--22-----4-4-4--4--44-------------------| 
A|--2--2--22-----2-2-2--2--22----0--0--00-----2-2-2--2--22-------------------| 
E|--0--0--00-----------------------------------------------------------------| 
don't forget to buckle when you fall 
beneath the pressure of the seconds when your life became a screamer 

This is still guitar 2... 
e|--0--0--00-----2-2-2--2--22----0--0--00-----2-2-2--2--22-------------------| 
B|--0--0--00-----4-4-4--4--44----2--2--22-----4-4-4--4--44-------------------| 
G|--1--1--11-----4-4-4--4--44----2--2--22-----4-4-4--4--44-------------------| 
D|--2--2--22-----4-4-4--4--44----2--2--22-----4-4-4--4--44-------------------| 
A|--2--2--22-----2-2-2--2--22----0--0--00-----2-2-2--2--22-------------------| 
E|--0--0--00-----------------------------------------------------------------| 

Guitar 1: Come in when Guitar 2 starts over for the Third time. 
e|---------------------------------------------------------------------------| 
B|------9-----------10p9-----------------------------------------------------| 
G|--9-------9---9--------9---------------------------------------------------| 
D|----9-------9---9--------9-------------------------------------------------| 
A|---------------------------------------------------------------------------| 
E|---------------------------------------------------------------------------| 

this is still the second verse, but it kinda confused me.. 

Guitar 2 
e|----0----0-------2----2-------0----0------2----2------i-play-something-----| 
B|----0----0-------4----4-------2----2------4----4--------like-that..--------| 
G|----1----1-------4----4-------2----2------4----4---------------------------| 
D|--2----2-------4----4-------2----2------4----4------play-it-one-time-------| 
A|---2----2-------2----2-------0----0------2----2----------------------------| 
E|---------------------------------------------------------------------------| 
[ Tab from: http://www.guitartabs.cc/tabs/g/good_charlotte/screamer_tab_ver_2.html ]
Guitar 1 
e|---------------------------------------------------------------------------| 
B|--9----9------10---10-------9----9------10---10----------------------------| 
G|---9----9-------9----9-------9----9-------9----9---------------------------| 
D|----9----9-------9----9-------9----9-------9----9--------------------------| 
A|---------------------------------------------------------------------------| 
E|---------------------------------------------------------------------------| 
staring at the sea things become so small 
i watch movies of my dreams, and pictures on my wall 

Pre-Chorus: 2x 

Guitar 1 
e|---------------------------------------------------------------------------| 
B|----12-10-9------12-10-9---------12-10-9------12-10-9----something-like----| 
G|--9------------9---------------9------------9--------------that------------| 
D|---------------------------------------------------------------------------| 
A|---------------------------------------------------------------------------| 
E|---------------------------------------------------------------------------| 

Guitar 2 (distorted) 
e|---------------------------------------------------------------------------| 
B|---------------------------------------------------------------------------| 
G|---------------4-4-4--4--44----2--2--22-----4-4-4--4--44-------------------| 
D|--2--2--22-----4-4-4--4--44----2--2--22-----4-4-4--4--44-------------------| 
A|--2--2--22-----2-2-2--2--22----0--0--00-----2-2-2--2--22-------------------| 
E|--0--0--00-----------------------------------------------------------------| 
...pictures on my wall 

Chorus: Both Guitars (4x) 

Both guitars (Play with one guitar distorted and one acoustic/clean..) 
e|---------------------------------------------------------------------------| 
B|---------------------------------------------------------------------------| 
G|---------------4-4-4--4--44----2--2--22-----4-4-4--4--44-------------------| 
D|--2--2--22-----4-4-4--4--44----2--2--22-----4-4-4--4--44-------------------| 
A|--2--2--22-----2-2-2--2--22----0--0--00-----2-2-2--2--22-------------------| 
E|--0--0--00-----------------------------------------------------------------| 
why is life such an issue in your mind 
why are the answers to my problems hard to find 
so hard to find, so hard to find 

Post Chorus: 2x 

Guitar 1 
e|-------12-11--------12-11-----------12-11--------12-11---------------------| 
B|----12-----------12--------------12-----------12---------------------------| 
G|--9------------9---------------9------------9------------------------------| 
D|---------------------------------------------------------------------------| 
A|---------------------------------------------------------------------------| 
E|---------------------------------------------------------------------------| 

Guitar 2 
e|---------------------------------------------------------------------------| 
B|---------------------------------------------------------------------------| 
G|---------------4-4-4--4--44----2--2--22-----4-4-4--4--44-------------------| 
D|--2--2--22-----4-4-4--4--44----2--2--22-----4-4-4--4--44-------------------| 
A|--2--2--22-----2-2-2--2--22----0--0--00-----2-2-2--2--22-------------------| 
E|--0--0--00-----------------------------------------------------------------| 
you say that i'm a dreamer, i say you're a non-believer 
take out the light, take out the light start screamin' 

Bridge: Both Guitars, again, one distorted and one clean. 

Both Guitars 
e|---------------------------------------------------------------------------| 
B|---------------------------------------------------------------------------| 
G|-2-2-2-2-2-2-2-2-4-4-4-4-4-4-4-4-----------------4-4-4-4-4-4-4-4-----------| 
D|-2-2-2-2-2-2-2-2-4-4-4-4-4-4-4-4-2-2-2-2-2-2-2-2-4-4-4-4-4-4-4-4-----------| 
A|-0-0-0-0-0-0-0-0-2-2-2-2-2-2-2-2-2-2-2-2-2-2-2-2-2-2-2-2-2-2-2-2-----------| 
E|---------------------------------0-0-0-0-0-0-0-0---------------------------| 
i'm dreaming, i'm a dreamer, no one believes me 
and you don't either 

Both Guitars 
e|---------------------------------------------------------------------------| 
B|---------------------------------------------------------------------------| 
G|-6-6-6-6-6-6-6-6-7-7-7-7-7-7-7-7-7-7-7-7-7-7-7-7----not-sure-about-this----| 
D|-6-6-6-6-6-6-6-6-5-5-5-5-5-5-5-5-5-5-5-5-5-5-5-5-----but-it-will-do--------| 
A|-4-4-4-4-4-4-4-4-5-5-5-5-5-5-5-5-5-5-5-5-5-5-5-5------for-now--------------| 
E|---------------------------------------------------------------------------| 
so tell me what to do 

Beginning of Intro..I don't know what to call it.. 

Guitar 2 (2x) 
e|---------------------------------------------------------------------------| 
B|---------------------------------------------------------------------------| 
G|------------4-4-4--4---2--2-2-2---4-4-4--4---------------------------------| 
D|-2--2-2-2---4-4-4--4---2--2-2-2---4-4-4--4---------------------------------| 
A|-2--2-2-2---2-2-2--2---0--0-0-0---2-2-2--2---------------------------------| 
E|-0--0-0-0------------------------------------------------------------------| 
take out the light, take out the light 
take out the light, take out the light start screamin' 

Guitar 2 (still) (2x) 
e|---------------------------------------------------------------------------| 
B|---------------------------------------------------------------------------| 
G|-----------------------2--2-2-2--------------------------------------------| 
D|-2--2-2-2--------------2--2-2-2--------------------------------------------| 
A|-2--2-2-2--------------0--0-0-0--------------------------------------------| 
E|-0--0-0-0------------------------------------------------------------------| 

Guitar 1 
e|---------------------------------------------------------------------------| 
B|---------------------------------------------------------------------------| 
G|---------------------------------------------------------------------------| 
D|----------------12---------------14p12-------------------------------------| 
A|---------X\12h14--14------------------14p12--------------------------------| 
E|-------------------------------------------12------------------------------| 

e|---------------------------------------------------------------------------| 
B|---------------------------------------------------------------------------| 
G|--------------------------------------14p12--------------------------------| 
D|----------------12---------------12h14-------------------------------------| 
A|-----------12h14--14-------------------------------------------------------| 
E|---------------------------------------------------------------------------| 
take out the light, take out the light 
take out the light, take out the light start screamin' 

Outro: 3x 

Guitar 1 
e|-------12-11--------12-11-----------12-11--------12-11---------------------| 
B|----12-----------12--------------12-----------12---------------------------| 
G|--9------------9---------------9------------9------------------------------| 
D|---------------------------------------------------------------------------| 
A|---------------------------------------------------------------------------| 
E|---------------------------------------------------------------------------| 

Guitar 2 
e|---------------------------------------------------------------------------| 
B|---------------------------------------------------------------------------| 
G|---------------4-4-4--4--44----2--2--22-----4-4-4--4--44-------------------| 
D|--2--2--22-----4-4-4--4--44----2--2--22-----4-4-4--4--44-------------------| 
A|--2--2--22-----2-2-2--2--22----0--0--00-----2-2-2--2--22-------------------| 
E|--0--0--00-----------------------------------------------------------------| 
take out the light start screamin' 
take out the light start screamin' 

Guitar 1 
e|-------12-11--------12-11-----------12-11----------------------------------| 
B|----12-----------12--------------12----------------------------------------| 
G|--9------------9---------------9------------9--hold------------------------| 
D|---------------------------------------------------------------------------| 
A|---------------------------------------------------------------------------| 
E|---------------------------------------------------------------------------| 

Guitar 2 
e|---------------------------------------------------------------------------| 
B|----------------------------------------------h----------------------------| 
G|---------------4-4-4--4--44----2--2--22-----4---o--------------------------| 
D|--2--2--22-----4-4-4--4--44----2--2--22-----4-----l------------------------| 
A|--2--2--22-----2-2-2--2--22----0--0--00-----2-------d----------------------| 
E|--0--0--00-----------------------------------------------------------------| 
take out the light start screamin'
Comments