Good Charlotte - Say Anything Chords & Tabs

 

Say Anything Chords & Tabs

Good Charlotte Chords & Tabs

Version: 2 Type: Bass Tab

Say Anything Bass Tab

Intro
G----------------------------|
D----------------------------|
A--14~--14--12--9--12--7777--|
E----------------------------|

                               x5     
G-------------------------------|
D-------------------------------|
A--14~--14--16--14--12--9--7777-|
E-------------------------------|

verse
G----------------------------|
D----------------------------|
A----------------------------|
E--7~--7--5--2--5--0000------|

                                x2
G----------------------------|
D----------------------------|
A----------------------------|
E--7~--7--9--7--5--2--0000---|

Pre-Chours
G----------------------------------|
D----------------------------------|    x2
A----------------------------------|
E--44444444--22222222--0000000000--|

Chours
G----------------------------------|
D----------------------------------|
A--2222222-------------------------|    x2
E----------22222222--00000000000---|

Rest

Verse x4

Pre Chours x2
[ Tab from: http://www.guitartabs.cc/tabs/g/good_charlotte/say_anything_btab_ver_2.html ]
Chours 
G----------------------------------|
D----------------------------------|
A--2222222-------------------------|    x2
E----------22222222--00000000000---|

G--44--33--11----------------------|
D--------------44--22--1-0---------|
A-------------------------7-9-7----|    
E----------------------------------|

Bridge
G---------------------------------------------------------|
D---------------------------------------------------------|
A------------------------0000000000-----------------------|    x2
E--444444444--222222222---------------777777777777--------|
                       Play the 7's the second time only  

Chours
G---------------------------------------|
D---------------------------------------|
A--222222222----------------------------|  x4  
E-------------22222222--00000000000-----|    

Ending 
G--44--33--11----------------------------|
D--------------44--22--1-0---------------|
A---------------------------7-9-7-9~-----|    
E----------------------------------------|