Good Charlotte - Say Anything Chords & Tabs

 

Say Anything Chords & Tabs

Good Charlotte Chords & Tabs

Version: 1 Type: Bass Tab 0 ratings
1 star 2 stars 3 stars 4 stars 5 stars
comments

Say Anything Bass Tab

   
Intro
G---------------------------------------------------
D---------------------------------------------------
A-14-14-12-9-12-7-7-7-7-----14-14-16-14-9-14-7-7-7-7
E---------------------------------------------------

Verse
G-----------------------------------------------
D-----------------------------------------------
A-7-7-7-5-2-5-0-0-0-0------7-7-7-9-7-5-2-0-0-0-0
E-----------------------------------------------
[ Tab from: http://www.guitartabs.cc/tabs/g/good_charlotte/say_anything_btab.html ]
Pre Chorus
G----------------------------------------
D----------------------------------------
A----------------------------------------
E-4-4-4-4-4-2-2-2-2-2-0-0-0-0-0-0-0-0-0-0

Chorus
G----------------------------------------
D----------------------------------------
A-2-2-2-2-2------------------------------
E-----------2-2-2-2-2-0-0-0-0-0-0-0-0-0-0

Thing after Chorus and at the end of song
G-4-4-3-3-1-1------------------
D-------------4-4-2-2-1-0------
A-------------------------7h9p7
E------------------------------


Order:
Intro x4
Verse x2
Pre Chorus x2
Chorus x2
Thing After x1
Verse x4
Pre Chorus x2
Chorus x2
Thing After x1
Pre chorus x2 (then just play the E string open)
Chorus x4
Thing After x1
Comments