Good Charlotte - Riot Girl Chords & Tabs

 

Riot Girl Chords & Tabs

Good Charlotte Chords & Tabs

Version: 4 Type: Tab 0 ratings
1 star 2 stars 3 stars 4 stars 5 stars
comments

Riot Girl Tab

the chords for this song is B E F#m E

This is the intro
e--------------------------------------------------------------------
B-------------------17-17-17-16-16-16-16-16--------------------------
G-------------------------------------------18-16-16-18-16-16-18-16--
D-11-11--12-14--\----------------------------------------------------
A-11-11--12-14--/play this two times---------------------------------
E--9--9--10-12-/-----------------------------------------------------


e---------------
B---------------
G---------------\
D-11-11--12-14-- \
A-11-11--12-14-- /you will play this before the vocals in the first chorus
E--9--9--10-12--/ and before the first 2 chorus.

[ Tab from: http://www.guitartabs.cc/tabs/g/good_charlotte/riot_girl_tab_ver_4.html ]
stanza, palm mute, strum each chord 8 times 
e------------  the chords in the stanza and in the chorus is the same
B------------
G---9-11-9---
D-9-9-11-9---
A-9-7-9--7---
E-7----------


the tab for the bridge:
e-------------------------------------------------
B-17-17-17-16-16-16-16-16------------------------- you will play this a
G-------------------------18-16-16-18-16-16-18-16- couple of times then...
D-------------------------------------------------
A-------------------------------------------------
E-------------------------------------------------


e--------------------------------
B-----17----16----17----16-------
G--16----16----16----16----18-16-
D--------------------------------
A--------------------------------
E--------------------------------
Comments