Good Charlotte - Riot Girl Chords & Tabs

 

Riot Girl Chords & Tabs

Good Charlotte Chords & Tabs

Version: 3 Type: Tab 0 ratings
1 star 2 stars 3 stars 4 stars 5 stars
comments

Riot Girl Tab

Riot Girl  -  Good Charlotte

Tabbed by IPE
Turn 1/2 step down
This is all you need for the best song ever
Give it a try, it's correct!

Intro
eb----------------------------------|
Bb---Riff------55544444-------------|
Gb--88-9-10-------------6-44-6-4444-|
Db--88-9-10-------------------------|
Ab--66-7--9-------------------------|
Eb----------------------------------|

Verse/Pre-chorus
eb------------------------|
Bb------------------------|
Gb------9---11---9--------|
Db--9---9---11---9---Riff-| (no Riff on Pre-chorus)
Ab--9---7----9---7--------|
Eb--7---------------------|
[ Tab from: http://www.guitartabs.cc/tabs/g/good_charlotte/riot_girl_tab_ver_3.html ]
Chorus
eb---------------------|
Bb---------------------|
Gb------11---9---13-11-|
Db--9---11---9---13-11-|
Ab--9----9---7---11--9-|
Eb--7------------------|

Riff (before the Bridge)
eb----------------------------------------4--------|
Bb---55544444-------------------5554444-5---7-5-4--|
Gb------------6-44-6-4444(3x)---------------------|
Db-------------------------------------------------|
Ab-------------------------------------------------|
Eb-------------------------------------------------|

Bridge
eb--------------0--|
Bb--------------5--|
Gb---8---6---4-----|
Db-----------------|
Ab-----------------|
Eb-----------------|
Comments