Good Charlotte - Predictable Chords & Tabs

 

Predictable Chords & Tabs

Good Charlotte Chords & Tabs

Version: 6 Type: Tab 0 ratings
1 star 2 stars 3 stars 4 stars 5 stars
comments

Predictable Tab

   
::Predictable::
::Good charlotte::
::Chronicles of life and death::

Standard tuning

Intro
e|------------------------------------------|
B|------------------------------------------|
G|-88-88-99--99-9-9-------------------------|
D|-99-99-99--99-9-9---99-99-99--99-9-9------|
A|--------------------66-66-77--77-7-7------|
E|------------------------------------------|

The other guitar comes in:
e|----12-11~----------|
B|-12-----------------|
G|--------------------|
D|--------------------|
A|--------------------|
E|--------------------|

Verse
e|------------------------------------------|
B|------------------------------------------|
G|-88-88-99--99-9-9-------------------------|
D|-99-99-99--99-9-9---99-99-99--99-9-9------|
A|--------------------66-66-77--77-7-7------|
E|------------------------------------------|x3
On the last time play this
e|------------------------------------------|
B|------------------------------------------|
G|-88-88-99--99-9-9-------------------------|
D|-99-99-99--99-9-9---22-22-22----2~--------|
A|--------------------22-22-22----2~--------|
E|--------------------00-00-00--0-0~--------|

Chorus (chords: B E F E)
e|-----------------------------------------------------|
B|-----------------------------------------------------|
G|-----------------------------------------------------|
D|-----1-----1-----1-----1----1h2---1h2---1h2---1h2----|
A|-2h4---2h4---2h4---2h4----2-----2-----2-----2--------|
E|-----------------------------------------------------|
[ Tab from: http://www.guitartabs.cc/tabs/g/good_charlotte/predictable_tab_ver_6.html ]
e|-----------------------------------------------------|
B|-----------------------------------------------------|
G|-----------------------------------------------------|
D|---2h3---2h3---2h3---2h3----1h2---1h2---1h2---1h2----|
A|-4-----4-----4-----4------2-----2-----2-----2--------|
E|-----------------------------------------------------|x2

Interlude

G# E F E
G# B F E

Then 
e|-7-6-2~---7--6-2~---4--6--7--9--b9-----|
B|-played together with the backing vocals--|
G|------------------------------------------|
D|------------------------------------------|
A|------------------------------------------|
E|------------------------------------------|

e|-6-7-4-6----4--------4---4------------|
B|----------5---4-5--6---6----1~--------|
G|--------------------------------------|
D|--------------------------------------|
A|--------------------------------------|
E|--------------------------------------|

e|----11----11---11----11---7---7---7---7----7---7--------------|
B|-11----12----9----11----5---9---5---9----5---9---0-4-7-8~-----|
G|--------------------------------------------------------------|
D|--------------------------------------------------------------|
A|--------------------------------------------------------------|
E|--------------------------------------------------------------|

Then play chorus twice

Outro
e|-------------------------------------------------|
B|-------------------------------------------------|
G|--------------------------------------------4~---|
D|---1-2-4-2-1-2----1-2-4-2-1------1-2-4-2-1-4~---|
A|-2--------------2-----------2---2-----------2~---|
E|-------------------------------------------------|


| h  hammer-on
| B  bend
| ~  let ring
Comments