Good Charlotte - Predictable Chords & Tabs

 

Predictable Chords & Tabs

Good Charlotte Chords & Tabs

Version: 3 Type: Tab 0 ratings
1 star 2 stars 3 stars 4 stars 5 stars
comments

Predictable Tab

   
Track - Predictable
Artist - Good Charlotte
Alum - C.O.L.A.D
Standard Tuning - e B G D A e
Guitar 1 - Billy
Guitar 2 - Benji

Intro/Verse : Guitar 1 Only : Start playing the last two notes after the first three
notes have been played three times.

|-----12-11--9-7--|  
|--12-------------|  
|-----------------|
|-----------------|
|-----------------|
|-----------------|

Guitar 2 doesn't play in the intro or verse 1.


Pre-chorus : Guitar 2 Only :

|--------------|
|--------------|
|--------------|
|--66-66-66-59-|
|--66-66-66-59-|
|--44-44-44-37-|

Chrous : Guitar 1 :

|----------------------------------------------------------------------------------------------|
|----------------------------------------------------------------------------------------------|
|----------------------------------------------------------------------------------------------|
|--444444444444444---------------------------------------------444444444444444-----------------|
|--222222222222222222222222222222444444444444444333333333333333222222222222222222222222222222--|
|-----------------000000000000000222222222222222111111111111111---------------000000000000000--|

|----------------------------------|
|----------------------------------|
|----------------------------------|
|----------------------------------|
|--444444444444444333333333333333--|
|--222222222222222111111111111111--|

Chrous : Guitar 2 :

|-----------------------------------------------------------------------------------------------|
|-----------------------------------------------------------------------------------------------|
|--------------------------------222222222222222------------------------------------------------|
|--9999999999999993333333333333332222222222222223333333333333339999999999999995555555555555555--|
|--9999999999999993333333333333330000000000000003333333333333339999999999999995555555555555555--|
|--777777777777777555555555555555---------------1111111111111117777777777777773333333333333333--|

|----------------------------------|
|----------------------------------|
|--222222222222222-----------------|
|--222222222222222333333333333333--|
|--000000000000000333333333333333--|
|-----------------111111111111111--|

Post-Chorus : Guitar 1 (Played after Guitar 2)

|--------|
|--19/0--|
|--19/0--|
|--19/0--|
|--------|
|--------|

Post-Chorus : Guitar 2 :

|---------------|
|---------------|
|---------------|
|--66-66-66-89--|
|--66-66-66-89--|
|--44-44-44-67--|

Verse 2 : Guitar 2 :

Guitar 2 plays exactly the same notes as he did on the first verse.

Verse 2 : Guitar 2 : 

|---------------------|                           |---------|
|---------------------|                           |---------|
|---------------------| <- Reapeat this riff 4x.  |---------|
|--77-99-------77-99--| Play these notes before ->|--77-99--|
|--55-77-77-99-55-77--| the pre-chorus          ->|--77-99--|
|--------55-77--------|                           |--55-77--|

Chrous : Guitar 2 :
[ Tab from: http://www.guitartabs.cc/tabs/g/good_charlotte/predictable_tab_ver_3.html ]
|-----------------------------------------------------------------------------------------------|
|-----------------------------------------------------------------------------------------------|
|--------------------------------222222222222222------------------------------------------------|
|--9999999999999993333333333333332222222222222223333333333333339999999999999995555555555555555--|
|--9999999999999993333333333333330000000000000003333333333333339999999999999995555555555555555--|
|--777777777777777555555555555555---------------1111111111111117777777777777773333333333333333--|

|----------------------------------|
|----------------------------------|
|--222222222222222-----------------|
|--222222222222222333333333333333--|
|--000000000000000333333333333333--|
|-----------------111111111111111--|

Bridge : Both Guitars :

|---------------------------------------------------|
|---------------------------------------------------|
|-------------------------444444--------------------|
|--22222444444222222666666444444444444222222666666--|
|--22222444444222222666666222222444444222222666666--|
|--00000222222000000444444------222222000000444444--|

Bridge part 2 : Both Guitars

|------------------|
|------------------|
|------------------|
|--66-66-77-66-57--|
|--66-66-77-44-35--|
|--44-44-55-44-35--|

Chrous : Guitar 1 :

|----------------------------------------------------------------------------------------------|
|----------------------------------------------------------------------------------------------|
|----------------------------------------------------------------------------------------------|
|--444444444444444---------------------------------------------444444444444444-----------------|
|--222222222222222222222222222222444444444444444333333333333333222222222222222222222222222222--|
|-----------------000000000000000222222222222222111111111111111---------------000000000000000--|

|----------------------------------|
|----------------------------------|
|----------------------------------|
|----------------------------------|
|--444444444444444333333333333333--|
|--222222222222222111111111111111--|

Chrous : Guitar 2 :

|-----------------------------------------------------------------------------------------------|
|-----------------------------------------------------------------------------------------------|
|--------------------------------222222222222222------------------------------------------------|
|--9999999999999993333333333333332222222222222223333333333333339999999999999995555555555555555--|
|--9999999999999993333333333333330000000000000003333333333333339999999999999995555555555555555--|
|--777777777777777555555555555555---------------1111111111111117777777777777773333333333333333--|

|----------------------------------|
|----------------------------------|
|--222222222222222-----------------|
|--222222222222222333333333333333--|
|--000000000000000333333333333333--|
|-----------------111111111111111--|

Outro Part 1 : Both Guitars :

|-----------------------------------------------------|  The fourth set of chords are elevens and nines.
|-----------------------------------------------------|
|--9999999--------------11111111111111----------------|
|--9999999666666677777771111111111111166666667777777--|
|--7777777666666677777779 9 9 9 9 9 9 66666667777777--|
|---------44444445555555--------------44444445555555--|  

Bridge Part 2 : Guitar 1 : 

|------------------------|
|------------------------|
|------------------------|
|----0033-3----00334--57-|
|--00----2-4200-----3-57-|
|---------------------35-|

Bridge Part 2 : Guitar 2 :

|---------------|
|---------------|
|---------------|
|--66-66-66-57--|
|--66-66-66-57--|
|--44-44-44-35--|
Comments