Good Charlotte - My Bloody Valentine Chords & Tabs

 

My Bloody Valentine Chords & Tabs

Good Charlotte Chords & Tabs

Version: 2 Type: Tab 0 ratings
1 star 2 stars 3 stars 4 stars 5 stars
comments

My Bloody Valentine Tab

this is RIGHT!!!!!!!!!!!


intro riff
e|---------------------------------------------------------------------------|
B|---------------------------------------------------------------------------|
G|-------7-------7-----------------------------------------------------------|
D|-7-2-4-7-7-2-4-7-----------------------------------------------------------|
A|-7-2-4-5-7-2-4-5-----------------------------------------------------------|
E|-5-0-2---5-0-2-------------------------------------------------------------|

verse riff- 2x
e|---------------------------------------------------------------------------|
B|---------------------------------------------------------------------------|
G|-------------------------------------7777777777----------------------------|
D|-77777-22222-77777-22222-77777-22222-7777777777----------------------------|
A|-77777-22222-77777-22222-77777-22222-5555555555----------------------------|
E|-55555-00000-55555-00000-55555-00000---------------------------------------|
[ Tab from: http://www.guitartabs.cc/tabs/g/good_charlotte/my_bloody_valentine_tab_ver_2.html ]
pre-chorus riff- 2x 
e|---------------------------------------------------------------------------|
B|---------------------------------------------------------------------------|
G|-----------7-7-7-7-7-------------7777777777--------------------------------|
D|-4-4-4-4-4-7-7-7-7-7-44444-22222-7777777777--------------------------------|
A|-4-4-4-4-4-5-5-5-5-5-44444-22222-5555555555--------------------------------|
E|-2-2-2-2-2-----------22222-00000-------------------------------------------|

chorus riff- 4x
e|---------------------------------------------------------------------------|
B|---------------------------------------------------------------------------|
G|-------------------77777---------------------------------------------------|
D|-77777-22222-44444-77777---------------------------------------------------|
A|-77777-22222-44444-55555---------------------------------------------------|
E|-55555-00000-22222---------------------------------------------------------|

bridge riff (played with bass, but this it for guitar)
e|---------------------------------------------------------------------------|
B|---------------------------------------------------------------------------|
G|---------------------------------------------77----------------------------|
D|-7-2-4-4-7-2-4-4-7-2-4-4-7-2-4-4-7-2-4-4-7-2-77----------------------------|
A|-7-2-4-4-7-2-4-4-7-2-4-4-7-2-4-4-7-2-4-4-7-2-55----------------------------|
E|-5-0-2-2-5-0-2-2-5-0-2-2-5-0-2-2-5-0-2-2-5-0-------------------------------|


song order:

intro
verse
pre-chorus
chorus
verse
pre-chorus
chorus
bridge
chorus
outro (orchestra)

PLEASE RATE!!!!!!!!!!!!!!!!!!!!
Comments