Good Charlotte - My Bloody Valentine Chords & Tabs

 

My Bloody Valentine Chords & Tabs

Good Charlotte Chords & Tabs

Version: 2 Type: Bass Tab 0 ratings
1 star 2 stars 3 stars 4 stars 5 stars
comments

My Bloody Valentine Bass Tab

   
G|-----------------------------------|
D|-----------------------------------|x3
A|-----------------------------------|
E|-5-5-5-5-5-5-5-2-2-0-0-0-0-0-0-0-0-|

G|------------------------|
D|------------------------|
A|-5--5--5--5--5--5-5-5-5-|
E|------------------------|

then play part A 3x
G|--------------------------------|
D|--------------------------------|
A|-5-5-5-5-5-5-5-5-5-5-5-5-5-5-5-5|
E|--------------------------------|

chorus
G|--------------------------------------------------------------------|
D|--------------------------------------------------------------------|x2
A|-5~-2-4-5~-5--5-5-----------7-7-7-7/-5-5-5-5-5-5-5-5-5-5-5-5-5-5-5-5|
E|------------------2-2-2-2-2/----------------------------------------|
[ Tab from: http://www.guitartabs.cc/tabs/g/good_charlotte/my_bloody_valentine_btab_ver_2.html ]
part B (oh, my love.....)
G|----------------------------------------------------------------|
D|----------------------------------------------------------------|x4
A|-------------------------------------------------5-5-5-5-5-5-5-5|
E|-5-5-5-5-5-5-5-5-0-0-0-0-0-0-0-0-2-2-2-2-2-2-2-2----------------|

Bridge (he dropped you off......)
G|-------------|
D|-------------|
A|---------5~~-|
E|-5~~-0~~-----|

G|-------------|
D|-------------|
A|---------5~~-|
E|-5~~-0~~-----|

Ending (from the last chorus riff)
G|------------------------------------------------------------------|
D|------------------------------------------------------------------|
A|------------------------------------------------------------------|
E|-5-5-5-5-5-5-5-5-0-0-0-0-0-0-0-0-0-2-2-2-2-2-2-2-2-2-2-2-2-2-2-2-2|

G|-----------------|
D|-----------------|x8
A|-5-5-5-5-5-5-5-5-|
E|-----------------|
Comments