Good Charlotte - My Bloody Valentine Chords & Tabs

 

My Bloody Valentine Chords & Tabs

Good Charlotte Chords & Tabs

Version: 1 Type: Bass Tab 0 ratings
1 star 2 stars 3 stars 4 stars 5 stars
comments

My Bloody Valentine Bass Tab

   
Band: Good Charlotte
Song: My Bloody Valentine
Album: The Young and the Hopeless
Tabbed by: Binx

		Intro

G|---------------------------------|
D|---------------------------------|
A|-5-5-5-5-5-5-5-5-5-5-5-5-5-5-5-5-|	X2
E|---------------------------------|


	Verse
G|---------------------------|
D|---------------------------|
A|---------------------------|	X3
E|-5-5-5-5-5-5-3-0-0-0-0-0-0-|


G|-----------------|
D|-----------------|
A|-5-5-5-5-5-5-5-5-|
E|-----------------|


	Pre-Chorus
G|-------------|
D|-------------|
A|-2-x-x-2-4-5-|
E|-------------|

[ Tab from: http://www.guitartabs.cc/tabs/g/good_charlotte/my_bloody_valentine_btab.html ]
G|-------------------------------------|
D|---------4---------------------------|
A|-------------------7-5-5-5-5-5-5-5-5-|
E|-2-2-2-2---0-0-0-0-------------------|


	Chorus
G|-----------------------------------------------------------------|
D|-----------------------------------------------------------------|
A|-------------------------------------------------5-5-5-5-5-5-5-5-|	x4
E|-5-5-5-5-5-5-5-5-0-0-0-0-0-0-0-0-2-2-2-2-2-2-2-2-----------------|


	Bridge (quiet part)
G|-------|
D|-------|
A|-----5-|	x6
E|-5-0---|


	Outro
G|-----------------|
D|-----------------|
A|-5-5-5-5-5-5-5-5-|	x9
E|-----------------|

G|---|
D|---|
A|---|
E|-2-|
Comments