Good Charlotte - Movin On Chords & Tabs

 

Movin On Chords & Tabs

Good Charlotte Chords & Tabs

Version: 3 Type: Tab 0 ratings
1 star 2 stars 3 stars 4 stars 5 stars
comments

Movin On Tab

any shit  destinypunk@hotmail.com

its been a long time, and this is my first tab but now the group
its good charlotte well i hope you enjoy it so here it is....

MOVIN ON

this is like the studio song and use it 3 guitars or something like these

1 GUITAR

INTRO

6--------------------------------
5--------------------------------
4--------------------------------  (whit delay)
3-------------------------------- x6
2--16-16--16-16---16-16--16-16---
1---------13-13----------10-10--- you can do it

PRE CHORUS

6-----------
5-----------
4--1--------
3----3---3-- x2,x2
2------4----
1-----------

CHORUS

6-------------6-x-6-x-6-x-4-x-4-x-4-x-6-x-6-x-6-x---
5--6-x-6-x-6-x8-x-8-x-8-x-6-x-6-x-6-x-8-x-8-x-8-x---
4--8-x-8-x-8-x8-x-8-x-8-x-6-x-6-x-6-x-8-x-8-x-8-x---
3--8-x-8-x-8-x-------------------------------------- x2
2---------------------------------------------------
1---------------------------------------------------

2 VERSE

6--------------------------
5--------------------------
4-----------------2--2/6---
3--4--4/6--1--1/2----------
2--------------------------
1--------------------------

repeat the pre chorus, then do another chorus but x2

6--0---
5--0--- the chorus whit this guitar ends like this 
4------
3------
2------
1------

then do the last the last chorus x2 and then do the last intro and thats all

2 GUITAR

intro 

6-------4-2--2-4-------4-2---
5--6-6--6-4--4-6--6-6--6-4---
4--8-8--6-6--4-6--8-8--6-4---
3--8-8------------8-8--------
2----------------------------
1----------------------------

verse
[ Tab from: http://www.guitartabs.cc/tabs/g/good_charlotte/movin_on_tab_ver_3.html ]
taped
   .............................
6-------------6-6--6--x4--4-4--4--x4---6-6-6-6-6-6-6---
5--6-6--6--x4-8-8--8------6-6--6-------8-8-8-8-8-8-8---
4--8-8--8------------------------------8-8-8-8-8-8-8---
3------------------------------------------------------ x2
2------------------------------------------------------
1------------------------------------------------------

pre chorus

taped
                                                       ...............
6--4-4-4-4-4-4--6-6-6-6-6-6---------------6-6-6-6-6-6--4-4-4-4-4-4-4-4----6---
5--6-6-6-6-6-6--8-8-8-8-8-8--6-6-6-6-6-6--8-8-8-8-8-8--6-6-6-6-6-6-4-4----8---
4--6-6-6-6-6-6--8-8-8-8-8-8--8-8-8-8-8-8--8-8-8-8-8-8---------------------8---
3----------------------------8-8-8-8-8-8--------------------------------------
2-----------------------------------------------------------------------------
1-----------------------------------------------------------------------------

then do the chorus from the first guitar, then repeat a verse, then another
pre chorus, then another chorus x2 from the 1 guitar and then......

bridge

taped
   ...............................
6------------------------------------
5--6-6-6-----------------------------
4--------8-8-8---------8-8-8-----8--- x8
3---------------8-8-8--------8-8-----
2------------------------------------
1------------------------------------

6--------------------------------------------------
5--13-13-13----------------------------------------
4-----------15-15-15-----------15-15-15-------15--- x4 (this is taped too)
3---------------------15-15-15----------15-15------
2--------------------------------------------------
1--------------------------------------------------

the repeat a chorus from the first guitar x2 and thats all and repeat a intro

GUITAR 3

6----------------
5----------------
4----------------
3--7------------- x8 (this is only wthi pitch, you kkow what i mean)
2----7---7---7---
1------5---5----- but im not totally sure

and thats all i hope you enjoy it good charlotte its great.
Comments