Good Charlotte - Movin On Chords & Tabs

 

Movin On Chords & Tabs

Good Charlotte Chords & Tabs

Version: 2 Type: Tab 0 ratings
1 star 2 stars 3 stars 4 stars 5 stars
comments

Movin On Tab

-------------------------------------------------------------------------------
			     Movin' On- Good Charlotte
-------------------------------------------------------------------------------
Tabbed by: Chris Norine 
Email: Sk8erPunkx24@yahoo.com

Tuning: Standard 

Intro (Distorted) Part 1
e|------16-16--18-18--16-16--15-15-------------------------------------------|
B|------15-15--15-15--15-15--15-15-------------------------------------------|
G|---------------------------------------------------------------------------|
D|---------------------------------------------------------------------------|
A|---------------------------------------------------------------------------|
E|---------------------------------------------------------------------------|

Part 2
e|---------------------------------------------------------------------------|
B|---------------------------------------------------------------------------|
G|---------------------------------------------------------------------------|
D|-------8--8------------8----8----------------------------------------------|
A|-------6--6-8-6----6-8-6----6-8-6----6-8-----------------------------------|
E|------------6-4----4-6--------6-4----4-6-----------------------------------|

Verse (Distorted)
e|---------------------------------------------------------------------------|
B|---------------------------------------------------------------------------|
G|---------------------------------------------------------------------------|
D|---8-88-8-8-88---5-55-5-5-55-----------------------------------------------|
A|---6-66-6-6-66---3-33-3-3-33---6-66-6-6-66---88888888----------------------|
E|-------------------------------8-88-8-8-88---66666666----------------------|
P.M. * ** * * **   * ** * * **   * ** * * **   
[ Tab from: http://www.guitartabs.cc/tabs/g/good_charlotte/movin_on_tab_ver_2.html ]
Pre-Chorus 
e|---------------------------------------------------------------------------|
B|---------------------------------------------------------------------------|
G|---------------------------------------------------------------------------|
D|---------------8-88-8-8-88-------------------------------------------------|
A|---6-----8-----6-66-6-6-66-------------------------------------------------|
E|---4-----6-----------------------------------------------------------------|

e|---------------------------------------------------------------------------|
B|---------------------------------------------------------------------------|
G|---------------------------------------------------------------------------|
D|-------------8888-5555-----------------------------------------------------|
A|---6666-8888-6666-3333--66666666-8-----------------------------------------|
E|---4444-6666------------88888888-6-----------------------------------------|

Chorus 
e|---------------------------------------------------------------------------|
B|---------------------------------------------------------------------------|
G|---------------------------------------------------------------------------|
D|---8-88-8-8-8-8------------------8-88-8-8-8-8------------------------------|
A|---6-66-6-6-6-6-8-6-66-6-6-6-6-8-6-66-6-6-6-6-8-6-66-6-6-6-6-8-------------|
E|----------------6-4-44-4-4-4-4-6--------------6-4-44-4-4-4-4-6-------------|

Bridge
e|---------------------------------------------------------------------------|
B|---------------------------------------------------------------------------|
G|----------888-----88-------------------------------------------------------|
D|------888-----888-----88---------------------------------------------------|
A|--666----------------------------------------------------------------------|
E|---------------------------------------------------------------------------|


Order:
Intro Part 1: x6
Intro Part 2: x2 (start after the 2nd time through for part 1...
                  listen to the song for the exact timing)
Verse: x2
Pre-Chorus: x2
Chorus: x2
Verse: x2
Pre-Chorus: x2
Chorus: x4
Bridge: x11
Chorus: x4
Intro Part 1: x4 \ 
Intro Part 2: x2 / same time

Well thats it this is one of the best songs ever!! lol... well i know
i dont have the rest of the other guitar part... but what i do have is
RIGHT! any questions or comments email me: sk8erpunkx24@yahoo.com
Comments