Good Charlotte - Movin On Chords & Tabs

 

Movin On Chords & Tabs

Good Charlotte Chords & Tabs

Version: 2 Type: Chords 0 ratings
1 star 2 stars 3 stars 4 stars 5 stars
comments

Movin On Chords

   
Yes, It's me again with my tabs. Keep trying ! (By the way I got this from my brother)

(Guitar 1)(intro)(6x)
E--------0--0--------------
B--3--3--------3--3--2--2--
G--------------------------
D--------------------------
A--------------------------
E--------------------------

(Guitar 2)(intro)
E--2----3----2----3--
B--3----0----3----0--
G--2----0----2----0--
D--0----0----0----0--
A--0----2----0----2--
E--0----3----0----3--

D
When I think about my life
Bm                             G                     A
I wonder if I will survive to live to see 25 or will I just fall?
D
Like all my friends they just keep dying
Bm
People round me always crying
G                            A
In this place that I like to call my home

G                        A                   D
Not everybody knows that everybody goes to a better place
G                        A                               D
Not everybody knows that everybody could be living their last days
G                       A              D           Bm
But the hard times will come and we'll keep movin' on
             G  A  (stop)
We're moving up

Keep movin' on

D
Life. Hope. Truth. Trust.
Bm
Faith. Pride. Love. Lust.

D
On without the things we've lost
G                          A
The things we gained we'll take with us
[ Tab from: http://www.guitartabs.cc/tabs/g/good_charlotte/movin_on_crd_ver_2.html ]
D                                       Bm
And all I've got are these two hands to make myself a better man
G                             A
I wonder if I'll ever see the end of this
D           
With all this rain it just keeps falling 
Bm
On my head and now I'm calling
G                              A
Out to someone else to help me make it through


G                        A                   D
Not everybody knows that everybody goes to a better place
G                        A                               D
Not everybody knows that everybody could be living their last days
G                      A              D           Bm
But the hard time will come and we'll keep movin' on
            G  A (stop)
We're movin'up

Keep movin' on


D
Life. Hope. Truth. Trust.
Bm
Faith. Pride. Love. Lust.
G
Pain. Hate. Lies. Guilt.
D
Laugh. Cry. Live. Die.


D
Some friends become enemies
Bm
Some friends become your family
G
Make the best with what your given
A
This ain't dying

This is living!


(Guitar)("Said were movin' on.....")
E------------------------------------------
B--------------------3--3---------3--3-----
G-----------2--2--2---------2--2--------2--
D--0--0--0---------------------------------
A------------------------------------------
E------------------------------------------

D
Life. Hope. Truth. Trust.
Bm
Faith. Pride. Love. Lust.
G
Pain. Hate. Lies. Guilt.
A
Laugh. Cry. Live. Die.


D
Some friends become enemies
Bm
Some friends become your family
G
Make the best with what your given
A
This ain't dying

This is living!

(Guitar 1)(outro)
E--------0--0--------------
B--3--3--------3--3--2--2--
G--------------------------
D--------------------------
A--------------------------
E--------------------------

(Guitar 2)(outro)
E--2----3----2----3--
B--3----0----3----0--
G--2----0----2----0--
D--0----0----0----0--
A--0----2----0----2--
E--0----3----0----3--
Comments