Good Charlotte - Mountain Chords & Tabs

 

Mountain Chords & Tabs

Good Charlotte Chords & Tabs

Version: 5 Type: Tab

Mountain Tab

Mountain - Good Charlotte
Standard Tuning
I've noticed alot of incomplete/incorrect tablatures of this song. This
is my first attempt at doing tabs, but I hope this 

fixes some of the issues with playing this song.  It's my favorite GC song.

Intro : Clean                        Gain (X2 to get 16 hits)
e|-----------------------------------|-----------------|
b|-----------------------------------|-----------------|
g|-----------------------------------|-----------------|
d|----6---6-----------6--------6---6-|-4-4-4-4-4-4-4-4-|
a|----3---4----4---4-----------3---4-|-4-4-4-4-4-4-4-4-|
e|---------------2-------------------|-2-2-2-2-2-2-2-2-|

(guitar 1) : Gain (X2)
e|---------------------------------------------|
b|---------------------------------------------|
g|---------------------------------------------|
d|----6-6-6----4-4-4-4-4-4-4-4-4-4-4-4-4-4-4-4-|
a|----3-3-4----4-4-4-4-4-4-4-4-4-4-4-4-4-4-4-4-|
e|-------------2-2-2-2-2-2-2-2-2-2-2-2-2-2-2-2-|

(guitar 2 simultaneous with guitar 1) : Gain (X2)
e|-------------1-2-----------------------------|
b|----4-4-2------------------------------------|
g|---------------------------------------------|
d|---------------------------------------------|
a|---------------------------------------------|
e|---------------------------------------------|

Verse : Gain (X2)
e|--------------------------------------------|
b|--------------------------------------------|
g|--------------------------------------------|
d|------------------------4-4-4-4--4-4-4-4----|
a|----4-4-4-4--6-6-6-6----4-4-4-4--4-4-4-4----|
e|----4-4-4-4--6-6-6-6----2-2-2-2--2-2-2-2----|

e|--------------------------------------------|
b|--------------------------------------------|
g|----4-4-4-4--3-3-3-3------------------------|
d|----4-4-4-4--3-3-3-3----4-4-4-4--4-4-4-4----|
a|----2-2-2-2--1-1-1-1----4-4-4-4--4-4-4-4----|
e|------------------------2-2-2-2--2-2-2-2----|

Chorus : Gain (X2)

e|--------------------------|
b|--------------------------|
g|--------------------------|
d|--------------------------|
a|----4--4-4----6--6-8-11---|
e|----2--2-4----4--4-6-9----|

e|--------------------------|
b|--------------------------|
g|--------------------------|
d|--------------------------|
a|----4--4-4----6-----------|
e|----2--2-4----4-----------|

Pre-Verse : Clean                    Gain (X2 to get 16 hits)
e|-----------------------------------|-----------------|
b|-----------------------------------|-----------------|
g|-----------------------------------|-----------------|
d|----6---6-----------6--------6---6-|-4-4-4-4-4-4-4-4-|
a|----3---4----4---4-----------3---4-|-4-4-4-4-4-4-4-4-|
e|---------------2-------------------|-2-2-2-2-2-2-2-2-|
[ Tab from: http://www.guitartabs.cc/tabs/g/good_charlotte/mountain_tab_ver_5.html ]
Gain (X2)
e|---------------------------------------------|
b|---------------------------------------------|
g|---------------------------------------------|
d|----6-6-6----4-4-4-4-4-4-4-4-4-4-4-4-4-4-4-4-|
a|----3-3-4----4-4-4-4-4-4-4-4-4-4-4-4-4-4-4-4-|
e|-------------2-2-2-2-2-2-2-2-2-2-2-2-2-2-2-2-|

(verse with less mute)

(chorus)

(pre-verse)

Bridge : Gain (X2)

e|--------------------------|
b|--------------------------|
g|--------------------------|
d|---------6----6--6-4------|
a|----8--8-4----6--6-4------|
e|----6--6------4--4-2------|

e|--------------------------|
b|--------------------------|
g|--------------------------|
d|---------6----6-----------|
a|----8--8-4----6-----------|
e|----6--6------4-----------|

Pre-Verse : Clean (X2)
e|----------------------|
b|----------------------|
g|----------------------|
d|----6---6-----------6-|
a|----3---4----4---4----|
e|---------------2------|

(guitar 1) Gain (X2) muted
e|----------------------------------------------------------------|
b|----------------------------------------------------------------|
g|----------------------------------------------------------------|
d|----6-6-6-6-6-6-6-6-6-6-6-6-6-6---------------------------------|
a|----3-3-3-3-3-3-4-4-4-4-4-4-4-4-4-4-4-4-4-4-4-4-4-4-4-4-4-4-4-4-|
e|--------------------------------2-2-2-2-2-2-2-2-2-2-2-2-2-2-2-2-|

(guitar 2 simultaneous with guitar 1) Gain (X4) muted
e|----------------4-4-4----------------|
b|----4-4-4-2-2-2-------2-2-4-4-6-6----|
g|-------------------------------------|
d|-------------------------------------|
a|-------------------------------------|
e|-------------------------------------|

Gain (X2)
e|---------------------------------------------|
b|---------------------------------------------|
g|---------------------------------------------|
d|----6-6-6----4-4-4-4-4-4-4-4-4-4-4-4-4-4-4-4-|
a|----3-3-4----4-4-4-4-4-4-4-4-4-4-4-4-4-4-4-4-|
e|-------------2-2-2-2-2-2-2-2-2-2-2-2-2-2-2-2-|

Outro : Gain (X2)

e|---------------------------------------------|
b|---------------------------------------------|
g|---------------------------------------------|
d|---------------------------------------------|
a|----4-4----4-4-4-4-4----4-4----4-4-4-4--4-4--|
e|----2-2----2-2-2-2-2----2-2----2-2-2-2--2-4--|

Gain (X2)
e|---------------------------------------------|
b|---------------------------------------------|
g|---------------------------------------------|
d|---------------------------------------------|
a|----3-3----3-3-3-3-3----3-3----4-4-4-4--4-4--|
e|----2-2----2-2-2-2-2----2-2----2-2-2-2--2-4--|

Like I said, this is my first ever attempt to tab a song. I hope you enjoy this,
and I hope it clears up some finger 

placements.