Good Charlotte - Mountain Chords & Tabs

 

Mountain Chords & Tabs

Good Charlotte Chords & Tabs

Version: 2 Type: Tab 0 ratings
1 star 2 stars 3 stars 4 stars 5 stars
comments

Mountain Tab

   
----------------------------------------------------------------------------
			MOUNTAIN - Good Charlotte
----------------------------------------------------------------------------
Tabbed by: Sean frei (A.K.A Vortex_uk)
Email: Sean050989@hotmail.com
Tuning: Standard

Intro / Post Chorus : Clean    
                                          |Play This Part Twice(Distorted)|
e|---------|------------------------------|-------------------------------|
B|---------|------------------------------|-------------------------------|
G|---------|--555/6666666-----------------|--555/6666666------------------|
D|--5-6-4--|--xxxxxxxxxxx-44444444444444--|--555/6666666-44444444444444---|
A|--3-4-4--|--333/4444444-44444444444444--|--333/4444444-44444444444444---|
E|------2--|--------------22222222222222--|--------------22222222222222---|

Verse : Distorted

e|-----------------------------------------|
B|-----------------------------------------| Play twice.
G|-----5----6-------------6----3-----------|
D|--5555-6666----4---4-6666-3333----4---4--|
A|--3333-4444-44444444-4444-1111-44444444--|
E|------------22222222-----------22222222--|

Chorus : Distorted
[ Tab from: http://www.guitartabs.cc/tabs/g/good_charlotte/mountain_tab_ver_2.html ]
e|----------------------------------------|  
B|----------------------------------------|   
G|-----------666666666--------------------| 
D|--444444444666666666666666666888888888--| 
A|--444444444444444444666666666666666666--|   
E|--222222222---------444444444666666666--|  

 |----------------------------------------|
 |----------------------------------------| Play Chorus twice.
 |-----------666666666--------------------| 
 |--444444444666666666666666666666666666--|
 |--444444444444444444666666666666666666--|
 |--222222222---------444444444444444444--|

Bridge : Distorted

e|---------------------|
B|---------------------|
D|--5-5-56666----------| Play four times.
D|--5-5-5666644443333--|
A|--3-3-3444444443333--|
E|-----------22221111--|  

Outro : Heavy Distortion

e|-----------------------------------------------------|
B|-----------------------------------------------------|
G|---------------------------66-666666-----------------|
D|--66-666666-2-66-666666-x2-66-666666-2-66-666666-x2--|
A|--66-666666-2-66-666666-x2-44-444444-2-66-666666-x2--|
E|--44-444444-0-44-444444-x0-----------0-44-444444-x0--|

============================================================================

Order :
 
Intro
Verse
Chorus
Post-Chorus
Verse
Chorus
Post-chorus
Bridge
Post-Chorus
Bridge
Outro

============================================================================

| /  slide up
| \  slide down
| h  hammer-on
| p  pull-off
| ~  vibrato
| +  harmonic
| x  Mute note

============================================================================
Comments