Good Charlotte - Mountain Chords & Tabs

 

Mountain Chords & Tabs

Good Charlotte Chords & Tabs

Version: 1 Type: Tab 0 ratings
1 star 2 stars 3 stars 4 stars 5 stars
comments

Mountain Tab

Tabbed by:Flea413
Email: Fleabite88@aol.com
Website: http://geocities.com/gcchronicles/

Chronicles of Life and Death ROCKS!! No one tabbed this out yet so here it is. It's like 98% right.
Tuning:regular

Intro:
e|-------------------------------------------------------------------------|
B|-------------------------------------------------------------------------|
G|---5---6-----------------------------------------------------------------|
D|---5---6---4-------------------------------------------------------------|
A|---3---4---4-------------------------------------------------------------|
E|-----------2-------------------------------------------------------------|

Verse:
e|-------------------------------------------------------------------------|
B|-------------------------------------------------------------------------|
G|--5--6-------6--3--------------------------------------------------------|
D|--5--6--4----6--3--4-----------------------------------------------------|
A|--3--4--4----4--1--4-----------------------------------------------------|
E|--------2----------2-----------------------------------------------------|
[ Tab from: http://www.guitartabs.cc/tabs/g/good_charlotte/mountain_tab.html ]
Chorus:
tell me what you want...
e|----------------------------------------------------------------------|
B|----------------------------------------------------------------------|
G|-----6-----3----------------------------------------------------------|
D|--4--4--6--3----------------------------------------------------------|
A|--4--4--4--1----------------------------------------------------------|
E|--2-----4-------------------------------------------------------------|

tell me what you need...
e|--------------------------------------------------------------------|
B|--------------------------------------------------------------------|
G|-----6--------------------------------------------------------------|
D|--4--6--6-----------------------------------------------------------|
A|--4--4--6-----------------------------------------------------------|
E|--2-----4-----------------------------------------------------------|

bridge:
e|---------------------------------------------------------------------|
B|---------------------------------------------------------------------|
G|---5---6-------------------------------------------------------------|
D|---5---6---4---------------------------------------------------------|
A|---3---4---4---------------------------------------------------------|
E|-----------2---------------------------------------------------------|

All the rest is the same just in different places.
Comments