Good Charlotte - Motivation Proclamation Chords & Tabs

 

Motivation Proclamation Chords & Tabs

Good Charlotte Chords & Tabs

Version: 6 Type: Tab 0 ratings
1 star 2 stars 3 stars 4 stars 5 stars
comments

Motivation Proclamation Tab

solo
E--------------------------------|---------------------------------|
B----15----12----15----------12b~|---------------------------------|
G-------------------------12-----|-14h12----------14b-14-14-12-14b-|
D-12----12----12----12-12--------|-------14-12-14------------------|
A--------------------------------|---------------------------------|
E--------------------------------|---------------------------------|

E----------------------------------|----------------------------------------|
B----------------------------------|----------------------------------------|
G----------------------------------|----------12-12-------12-12-------12-12-|
D-14h12----------12-14-12-14/16\14-|-12-12h14-------12h14-------12h14-------|
A-------14-12-14-------------------|----------------------------------------|
E----------------------------------|----------------------------------------|
[ Tab from: http://www.guitartabs.cc/tabs/g/good_charlotte/motivation_proclamation_tab_ver_6.html ]
E--------------------------------|----10-12b--------|
B--------------------------------|-12--------10-----|
G-------12-------12-14------12-12|--------------12--|
D-12h14----12h14------12h14------|------------------|
A--------------------------------|------------------|
E--------------------------------|------------------|
                               
E|-------------xxxx-------------xxxx-----------------------------|
B|-------------xxxx-------------xxxx-----------------------------|
G|-------12-12-xxxx-------12-12-xxxx-------12-12-14-12-14-15b-15-|
D|-12h14-------xxxx-12h14-------xxxx-12h14-----------------------|
A|-------------xxxx-------------xxxx-----------------------------|
E|-------------xxxx-------------xxxx-----------------------------|


tabbed by paul anthony bulao
e-mail me if there are corrections in this tab
stish_05@yahoo.com

enjoy!!! this tab is very easy to learn
Comments