Good Charlotte - Motivation Proclamation Chords & Tabs

 

Motivation Proclamation Chords & Tabs

Good Charlotte Chords & Tabs

Version: 4 Type: Tab 0 ratings
1 star 2 stars 3 stars 4 stars 5 stars
comments

Motivation Proclamation Tab

   
--------------------------------------------------------------------------------
                   The Motivation Proclamation - Good Charlotte
--------------------------------------------------------------------------------
Artist: Good Charlotte 
Song Title: The Motivation Proclamation. 
Off the albulm: Good Charlotte(TRACK 3)
Tabbed by: Zero is great man.
Tunning: Dropped D tunning: Low to high: DADGBe

Intro/Verse 1:(Played Clean)
"Spend your lazy endless crazy, days in side my head(Fill 1)
"Your so selfish your not the only, one(Fill 2) who thinks he's dead."
"I'm paid to smile but I'm on trail(Fill 1) for what you think I said..."
e|------------------------------------|
B|------------------------------------|
G|----------5-5-5-5-----------5-5-5-5-|
D|-5-5-5-5--5-5-5-5--0-0-0-0--5-5-5-5-|
A|-5-5-5-5--3-3-3-3--0-0-0-0--3-3-3-3-|
D|-5-5-5-5-----------0-0-0-0----------|

(Guitar 2:)                   Fill 1  Fill 2
e|-3-3-3-3-----------2-2-2-2-|---3---|-----3-|
B|-3-3-3-3--1-1-1-1--3-3-3-3-|-----3-|---1---|
G|-0-0-0-0--0-0-0-0--2-2-2-2-|-0-----|-0-----|
D|----------2-2-2-2----------|-------|-------|
A|----------3-3-3-3----------|-------|-------|
D|---------------------------|-------|-------|

Pre-chorus:(Played Clean)
"Cause I never said, that everything would be ok, And I never said, 
that we would live to see another day,"
e|--------------------------------------------|
B|--------------------------------------------|
G|-----------------------5-5-5-5-5------------|
D|-5-5-5-5-5--0-0-0-0-0--5-5-5-5-5--0-0-0-0-0-|
A|-5-5-5-5-5--0-0-0-0-0--3-3-3-3-3--0-0-0-0-0-|
D|-5-5-5-5-5--0-0-0-0-0-------------0-0-0-0-0-|

(Guitar 2)
e|-3-3-3-3-3--2-2-2-2-2-------------2-2-2-2-2-|
B|-3-3-3-3-3--3-3-3-3-3--1-1-1-1-1--3-3-3-3-3-|
G|-0-0-0-0-0--2-2-2-2-2--0-0-0-0-0--2-2-2-2-2-|
D|-----------------------2-2-2-2-2------------|
A|-----------------------3-3-3-3-3------------|
D|--------------------------------------------|

Chorus Part 1: (Both Guitars w/Distortion)
"Motivate me, I wanna get my self out of this bed."
"Captivate me, I wan't good thoughts inside of my head."
e|------------------------------------|
B|------------------------------------|
G|------x-5-5--x-7-7--x-5-5-4-4-2-2---|
D|-5-5--x-5-5--x-7-7--x-5-5-4-4-2-2-5-|
A|-5-5--x-3-3--x-5-5--x-3-3-2-2-0-0-5-|
D|-5-5------------------------------5-|
[ Tab from: http://www.guitartabs.cc/tabs/g/good_charlotte/motivation_proclamation_tab_ver_4.html ]
Chorus part 2:(Played w/Distortion)
"When I fall down, would you come around,
And pick me right off of the ground"
e|----------------------------|
B|----------------------------|
G|----5-5-5-5---------5-5-5-5-|
D|-5--5-5-5-5--0-0-0--5-5-5-5-|
A|-5--3-3-3-3--0-0-0--3-3-3-3-|
D|-5-----------0-0-0----------|

(Guitar 2)
e|-3-----------2-2-2----------|
B|-3--1-1-1-1--3-3-3--1-1-1-1-|
G|-0--0-0-0-0--2-2-2--0-0-0-0-|
D|----2-2-2-2---------2-2-2-2-|
A|----3-3-3-3---------3-3-3-3-|
D|----------------------------|

Verse 2:
"Realistic and unartisc(Fill 1) You say I'm selfish and obsurd."
"You try to change me, try to save me(Fill 2)You say I'm gonna learn."
"I'm so blind I'm outta time, your so unkind some times(Fill 1) I never lied(x3)

Pre-chorus

Chorus

Guitar 2: Solo part 1(Played with overdrive)		
e|---------7----------7--5-------------5---5-6-5------------------------|
B|------------------8------8-5----5--8---8-------8--5-------------------|
G|--7-7--7---7-7--7------------7----------------------7-4-----4-7/12\7--|
D|--------------------------------------------------------7-5-----------|
A|----------------------------------------------------------------------|
D|----------------------------------------------------------------------|

Part 2:
e|------------------------------7---7-7-9--12--9----------------------------|
B|-----8-----8-----8-----8--8-8---8--------------8-----8------8-----------8-|
G|-7-9---7-9---7-9---7-9---------------------------7-9----7-9---x-x-x-7-9---|
D|--------------------------------------------------------------------------|
A|--------------------------------------------------------------------------|
D|--------------------------------------------------------------------------|

Part 3:
e|------------------------------|
B|-------------8---8---6b-(8)-5-|
G|-x-x-x-x-7-9---9--------------|
D|------------------------------|
A|------------------------------|
D|------------------------------|

Outro:"Motivate me,... I wanna get myself out of this..."
Guitar 1: Plays Chorus
Guitar 2 Plays:
e|---7--------7-----|
B|-------8--------8-|
G|-7---7----7---7---|
D|------------------|
A|------------------|
D|------------------|

-> "I wanna get my self out of this bed!"
Both guitars w/Distortion.
e|-----------------------------------------------|
B|-----------------------------------------------|
G|--------------------------5-5-5-4-4-4-2--------|
D|-5-5-x-x-5-5-x-x-5-5-x-x--5-5-5-4-4-4-2-5--5/8-|
A|-5-5-x-x-5-5-x-x-5-5-x-x--3-3-3-2-2-2-0-5--5/8-|
D|-5-5-x-x-5-5-x-x-5-5-x-x----------------5--5/8-|

| x = Muted note
| / = Slide up
| \ = Slide down
| b = bend
| ()= Bend to make this tone and the same note in fret

That about it, feel free to comment and correct, Peace.
=============================================================================
Comments