Good Charlotte - Motivation Proclamation Chords & Tabs

 

Motivation Proclamation Chords & Tabs

Good Charlotte Chords & Tabs

Version: 3 Type: Tab 0 ratings
1 star 2 stars 3 stars 4 stars 5 stars
comments

Motivation Proclamation Tab

   
Song : The Motivation Proclamation (correction)
Band : Good Charlotte
Tabbed By : Diamond Jerry (Raptureboy182@yahoo.com)


(VERSE1)

     G	 Cadd9  Bm    Cadd9
 e---3-----3-----x-----3-----|
 B---3-----3-----3-----3-----|
 G---0-----0-----4-----0-----| Repeat 3x
 D---0-----2-----4-----2-----|
 A---2-----3-----2-----3-----|
 E---3-----x-----x-----x-----|

(PRE-CHORUS)
 
     D   Cadd9  Am     D      Cadd9  Am    D
 e---2-----3-----0-----2----|--3-----0-----2-----|
 B---3-----3-----1-----3----|--3-----1-----3-----|
 G---2-----0-----2-----2----|--0-----2-----2-----|
 D---0-----2-----2-----0----|--2-----2-----0-----|
 A---0-----3-----0-----0----|--3-----0-----0-----|
 E---x-----x-----x-----x----|--x-----x-----x-----|


(CHORUS)(Heavy distortion)
 e------------------------------------------|
 B------------------------------------------|
 G----------5-5--5--7-7----7--5-5-5--4-4----|
 D-5-5--5---5-5--5--7-7----7--5-5-5--4-4--2-| Repeat 2x then
 A-5-5--5---3-3--3--5-5----5--3-3-3--2-2--0-|
 E-3-3--3-----------------------------------|


(POST CHORUS)(Strum here)
 e---------------------|
 B---------------------|
 G-------5-----7-----5-|
 D-5-----5-----7-----5-| Repeat 2x
 A-5-----3-----5-----3-|
 E-3-------------------|


(VERSE2)

     G	 Cadd9  Bm    Cadd9
 e---3-----3-----x-----3-----|
 B---3-----3-----3-----3-----|
 G---0-----0-----4-----0-----| Repeat 4x
 D---0-----2-----4-----2-----|
 A---2-----3-----2-----3-----|
 E---3-----x-----x-----x-----|

[ Tab from: http://www.guitartabs.cc/tabs/g/good_charlotte/motivation_proclamation_tab_ver_3.html ]
(PRE-CHORUS)
 
     D   Cadd9  Am     D      Cadd9  Am    D
 e---2-----3-----0-----2----|--3-----0-----2-----|
 B---3-----3-----1-----3----|--3-----1-----3-----|
 G---2-----0-----2-----2----|--0-----2-----2-----|
 D---0-----2-----2-----0----|--2-----2-----0-----|
 A---0-----3-----0-----0----|--3-----0-----0-----|
 E---x-----x-----x-----x----|--x-----x-----x-----|


(CHORUS)(Heavy distortion)
 e------------------------------------------|
 B------------------------------------------|
 G----------5-5--5--7-7----7--5-5-5--4-4----|
 D-5-5--5---5-5--5--7-7----7--5-5-5--4-4--2-| Repeat 2x then 
 A-5-5--5---3-3--3--5-5----5--3-3-3--2-2--0-|
 E-3-3--3-----------------------------------|


(POST CHORUS)(Strum here)
 e---------------------|
 B---------------------|
 G-------5-----7-----5-|
 D-5-----5-----7-----5-| Repeat 2x
 A-5-----3-----5-----3-|
 E-3-------------------|	


(SOLO) (Chord:Post Chorus)
 -I'm just being lazy to figure out this solo,
  but it's easy to find it..well,u know!-

(PRE-CHORUS)

     Am    D   Cadd9   D
 e---0-----2-----3-----2-----|
 B---1-----3-----3-----3-----|
 G---2-----2-----0-----2-----|
 D---2-----0-----2-----0-----|
 A---0-----0-----3-----0-----|	
 E---0-----0-----0-----0-----|


(REPEAT POST-CHORUS 2x)

(OUTRO)

 e---------------------------------------------------------------------|
 B---------------------------------------------------------------------|
 G----------------------------------------5-5-5--4-4-------------------|
 D---5-5--xxxx--5-5--xxxx---5-5---xxxx-5--5-5-5--4-4--2----5~~---------|
 A---5-5--xxxx--5-5--xxxx---5-5---xxxx-5--3-3-3--2-2--0----5~~---------|
 E---3-3--xxxx--3-3--xxxx---3-3---xxxx-3-------------------3~~---------|


Any comments or corrections,just mail me to Raptureboy182@yahoo.com
Comments