Good Charlotte - Little Things Chords & Tabs

 

Little Things Chords & Tabs

Good Charlotte Chords & Tabs

Version: 9 Type: Tab 0 ratings
1 star 2 stars 3 stars 4 stars 5 stars
comments

Little Things Tab

GOOD CHARLOTTE      Little Things


*Yea this tab is dedicated, to every kid who wrights wrong tabs on the internet.
This is for you, for every kid who can't figure it out themselves.
This is for you, to every one who plays the wrong tabs.
This is for you......here we go.
E--------------------------|
B--------------------------|
G--------------------------| repeat as necessairy
D-77777--------------------|
A-55555---776--55555---55--|
E---------554--33333---33--|



--------LYRICS START AND ITS ALL BASS-----------



thhhhhhhhhhhiiiiiiiiiinnnnnnnnnggggggssssss
E--------------------------|
B--------------------------|
G--------------------------| repeat as necessairy
D-77777--------------------|
A-55555---776--55555---55--|
E---------554--33333---33--|


[ Tab from: http://www.guitartabs.cc/tabs/g/good_charlotte/little_things_tab_ver_9.html ]
little things then.... little things they.... little things they....
E-----------------------------------|
B-----------------------------------|
G-----------------------------------| repeat as necessairy
D-77777777--------------------------|
A-55555555777777775555555588888888--|
E---------555555553333333366666666--|



do you wanna.....
E--------------|
B--------------|
G--------------| repeat as necessairy
D--------------|
A-55-555-88----|
E-33-333-66----|

E-------|
B-------|
G-------|
D-------|
A-5678--|
E-3456--|

E--------------------------|
B--------------------------|
G--------------------------| repeat as necessairy
D-77777--------------------|
A-55555---776--55555---55--|
E---------554--33333---33--|


The song end's here. I got a bad version of it off KAZAA.
I really don't feel like taking the time to write how many times to repeat. Or
put it all togeather perfectly. If you can't do it yourselves go buy a bass
guitar. I think thats what ususally happens if you don't cut it for the guitar.
I usually tab ozzy and slayer. But I listen to some GC too, and those awfull tabs
get anoying.

Any questions or comments feel free to email me at
fairies_wear_boots32@hotmail.com
Comments