Good Charlotte - Little Things Chords & Tabs

 

Little Things Chords & Tabs

Good Charlotte Chords & Tabs

Version: 8 Type: Tab 0 ratings
1 star 2 stars 3 stars 4 stars 5 stars
comments

Little Things Tab

------------GOOD CHARLOTTE-----------
-------------------------------------
------------LITTLE  THINGS-----------
tabbed by King



"This song is...never had a 

      date to no school dance."
e|----------------------------
B|----------------------------
G|----------------------------
D|---6666--66~5~4444--77-4---- X4
A|---6666--66~5~4444--77-4----
E|---4444--44~3~2222--55-2----
    Bass plays for verse

*PRE-CHORUS*

1:"...TRICK!"
2:"...DICK!"
     "Thiiiiings..."
e|----------------------------
B|----------------------------
G|--66666---------------------
D|--66666--66~5~44444--77-4--- X1
A|--44444--66~5~44444--77-4---
E|---------44~3~22222--55-2---

e|----------------------------
B|----------------------------
G|--66666---------------------
D|--66666--66~5~444444-777777- X1
A|--44444--66~5~444444-777777-
E|---------44~3~222224-555555-

*CHORUS* 

   "Little things, little things, they..."
e|------------------------------
B|------------------------------
G|--666666----------------------
D|--666666-666666-444444-777777- X4
A|--444444-666666-444444-777777-
E|---------444444-222222-555555-

*Post-Chorus* 
             "You wanna..."
e|------------------------------
B|------------------------------
G|------------------------------
D|--44----777777---------------- X3
A|--44----777777----------------
E|--22----555555----------------
[ Tab from: http://www.guitartabs.cc/tabs/g/good_charlotte/little_things_tab_ver_8.html ]
*1ST TIME ONLY*:
e|------------------------------
B|------------------------------
G|------------------------------
D|--44---778910----------------- X1
A|--44---778910-----------------
E|--22---55678------------------

        "...what...what...c'mon"

e|----------------------------
B|----------------------------
G|----------------------------
D|---6666--66~5~4444--77-4---- X1
A|---6666--66~5~4444--77-4----
E|---4444--44~3~2222--55-2----

e|----------------------------
B|----------------------------
G|----------------------------
D|---6666--66~5~4444--77----- X1
A|---6666--66~5~4444--77-----
E|---4444--44~3~2222--55-----

*GO BACK TO PRE-CHORUS 2ND TIME*

*2ND TIME ONLY*:
                "what, what....c'mon!" 
e|-------------------------------
B|-------------------------------
G|-------------------------------
D|--44---56789101112131415161718- X1
A|--44---56789101112131415161718-
E|--22---345678-9-10111213141516-


   "Little things, little things, little things..."
e|------------------------------
B|------------------------------
G|--666666----------------------
D|--666666-666666-444444-777777- X4
A|--444444-666666-444444-777777-
E|---------444444-222222-555555-

    "OOoooooh"
e|----------------------------
B|----------------------------
G|--66666---------------------
D|--66666--66~5~44444--77-4--- X1
A|--44444--66~5~44444--77-4---
E|---------44~3~22222--55-2---

    "Oooooooh"
e|----------------------------
B|----------------------------
G|--66666---------------------
D|--66666--66~5~44444--77----- X1
A|--44444--66~5~44444--77-----
E|---------44~3~22222--55-----

*Bass plays until end of song*
Comments