Good Charlotte - Little Things Chords & Tabs

 

Little Things Chords & Tabs

Good Charlotte Chords & Tabs

Version: 7 Type: Tab 0 ratings
1 star 2 stars 3 stars 4 stars 5 stars
comments

Little Things Tab

   
------------------------------------------------------------
GOOD CHARLOTTE - LITTLE THINGS
------------------------------------------------------------

BY: DEREK

INTRO/VERSES
e |---------------------------------------------|
B |---------------------------------------------|
G |-6-6-6-6-------------------------------------|
D |-6-6-6-6--6-6-5-4-4-4-4--7-7-6---------------|
A |-4-4-4-4--6-6-5-4-4-4-4--7-7-6---------------|
E |----------4-4-3-2-2-2-2--5-5-4---------------|
[ Tab from: http://www.guitartabs.cc/tabs/g/good_charlotte/little_things_tab_ver_7.html ]
CHORUS
e |---------------------------------------------|
B |---------------------------------------------|
G |-6-6-6-6-------------------------------------|
D |-6-6-6-6-6-6-6-6-4-4-4-4-7-7-7-7-------------|
A |-4-4-4-4-6-6-6-6-4-4-4-4-7-7-7-7-------------|
E |---------4-4-4-4-2-2-2-2-5-5-5-5-------------|

BETWEEN CHORUS AND VERSE
e |---------------------------------------------|
B |---------------------------------------------|
G |---------------------------------------------|
D |-4-4-4-4-7-7-7-7-4-4-4-4-7-7-7-7/11-11-11-11-|
A |-4-4-4-4-7-7-7-7-4-4-4-4-7-7-7-7/11-11-11-11-|
E |-2-2-2-2-5-5-5-5-2-2-2-2-5-5-5-5/9--9--9--9--|

ANY QUESTIONS, TAKE GUITAR LESSONS
Comments