Good Charlotte - Little Things Chords & Tabs

 

Little Things Chords & Tabs

Good Charlotte Chords & Tabs

Version: 2 Type: Tab 0 ratings
1 star 2 stars 3 stars 4 stars 5 stars
comments

Little Things Tab

-------------------------------------------------------------------------------
                     LITTLE THINGS - Good Charlotte
-------------------------------------------------------------------------------                                                                                         			LITTLE THINGS - Good Charlotte                ------------------------------------------------------------------------------- 

By: Chadwik:  Chadwik6@yahoo.com

Riff 1:
e|--------------------------------------------| 
b|--------------------------------------------| 
g|--------------------------------------------| 
d|---6--6--6----------------------------------| 
a|---4--4--4--6--6--5--4--4--4--4--4--6-------| 
e|------------4--4--3--2--2--2--2--2--4-------| 

Riff 2:
e|------------------------------------------------------------| 
b|------------------------------------------------------------| 
g|------------------------------------------------------------| 
d|--6--6--6--6------------------------------------------------| 
a|--4--4--4--4--6--6--6--6--4--4--4--4--4--7--7--7--7---------| 
e|--------------4--4--4--4--2--2--2--2--2--5--5--5--5---------| 
[ Tab from: http://www.guitartabs.cc/tabs/g/good_charlotte/little_things_tab_ver_2.html ]
Riff 3:                               Riff 4:
e|----------------------|   |-------------------------| 
b|----------------------|   |-------------------------| 
g|----------------------|   |-------------------------| 
d|----------------------|   |-------------------------| 
a|--4--4/7--7--7--7-----|   |---4--4--7--8--9--10-----| 
e|--2--2/5--5--5--5-----|   |---2--2--5--6--7---8-----| 

Riff 5:
e|---------------------------------------------------------------------------| 
b|---------------------------------------------------------------------------| 
g|---------------------------------------------------------------------------| 
d|----------2--3--4--5--6--7--8--9--10--11--12--13--14--15--16--17-----------| 
a|---4--4---0--1--2--3--4--5--6--7---8---9--10--11--12--13--14--15-----------| 
e|---2--2--------------------------------------------------------------------| 


ORDER:
Riff 1: 4x
(14 measure rest)
Riff 1: 2x
Riff 2: 4x
Riff 3: 3x
Riff 4: 1x
Riff 1: 2x
(14 measure rest)
Riff 1: 2x
Riff 2: 4x
Riff 3: 3x
Riff 5: 1x
Riff 2: 4x
Riff 1: 2x
(Bass and Drums play out)



===============================================================================
Comments