Good Charlotte - Little Things Chords & Tabs

 

Little Things Chords & Tabs

Good Charlotte Chords & Tabs

Version: 11 Type: Tab 0 ratings
1 star 2 stars 3 stars 4 stars 5 stars
comments

Little Things Tab

good charlotte
little things

intro/ pre-chorus:

E|-----------------------------
B|-----------------------------
G|-----------------------------
D|--6-6-6--6-6--5--4--2-2-2-2--
A|--4-4-4--6-6--5--4--0-0-0-0--
E|---------4-4--3--2-----------

chorus:

E|----------------------------------------
B|----------------------------------------
G|----------------------------------------
D|--666666-6666666--44444444--222222------
A|--444444-6666666--44444444--000000------
E|---------4444444--22222222--------------

bridge:
[ Tab from: http://www.guitartabs.cc/tabs/g/good_charlotte/little_things_tab_ver_11.html ]
E|----------------------------
B|----------------------------
G|----------------------------
D|--4--4-4--2-2-2--4--4-4-4---
A|--4--4-4--0-0-0--4--4-4-4---
E|--2--2-2---------2--2-2-2---

post bridge:

E|-----------------------------------------------------
B|-----------------------------------------------------
G|-----------------------------------------------------
D|--2-2-2-2--3-3-3-3-3--4-4-4-4--5-5-5-5-5-5--6-6-6-6--
A|--0-0-0-0--1-1-1-1-1--2-2-2-2--3-3-3-3-3-3--4-4-4-4--
E|-----------------------------------------------------
then kicks into the verse or chorus (at the end of the song).

the outro is the intro, just played slower.
this song should be simple enough. have fun with it.
Comments