Good Charlotte - Little Things Chords & Tabs

 

Little Things Chords & Tabs

Good Charlotte Chords & Tabs

Version: 10 Type: Tab 0 ratings
1 star 2 stars 3 stars 4 stars 5 stars
comments

Little Things Tab

I already submitted this tab (i forgot to log-in before i submitted it) but
today i realized i made a few minor mistakes. here are the revised tabs:

INTRO
e |---------------------------------------------|
B |---------------------------------------------|
G |-6-6-6-6-------------------------------------|
D |-6-6-6-6--6-6-5-4-4-4-4--7-7-6---------------| x4
A |-4-4-4-4--6-6-5-4-4-4-4--7-7-6---------------|
E |----------4-4-3-2-2-2-2--5-5-4---------------|


...then the bass plays through the first verse...


"TRICK! Thiiiinnngggs, Thiiiinnngggs"
Pre-Chorus
e |---------------------------------------------|
B |---------------------------------------------|
G |-6-6-6-6-------------------------------------|
D |-6-6-6-6--6-6-5-4-4-4-4--7-7-6---------------| 
A |-4-4-4-4--6-6-5-4-4-4-4--7-7-6---------------|
E |----------4-4-3-2-2-2-2--5-5-4---------------|

e |---------------------------------------------|
B |---------------------------------------------|
G |-6-6-6-6-------------------------------------|
D |-6-6-6-6--6-6-5-4-4-4-4--7-7-7-7-7-7-7-7-----| 
A |-4-4-4-4--6-6-5-4-4-4-4--7-7-7-7-7-7-7-7-----|
E |----------4-4-3-2-2-2-2--5-5-5-5-5-5-5-5-----|



"Here we go! The little things, little things..."
CHORUS
e |---------------------------------------------|
B |---------------------------------------------|
G |-6-6-6-6-------------------------------------|
D |-6-6-6-6-6-6-6-6-4-4-4-4-7-7-7-7-------------| x4
A |-4-4-4-4-6-6-6-6-4-4-4-4-7-7-7-7-------------|
E |---------4-4-4-4-2-2-2-2-5-5-5-5-------------|



"GO! You want to hate me now..."
Bridge
e |-----------------------|
B |-----------------------|
G |-----------------------|
D |-4--4-4---777777-------|x3 then on the last set...
A |-4--4-4---777777-------|
E |-2--2-2---555555-------|

e |-----------------------|
B |-----------------------|
G |-----------------------|
D |-4--4-4---7-8-9-10-----|
A |-4--4-4---7-8-9-10-----|
E |-2--2-2---5-6-7-8------|


Intro
"What. come on. what."
e |---------------------------------------------|
B |---------------------------------------------|
G |-6-6-6-6-------------------------------------|
D |-6-6-6-6--6-6-5-4-4-4-4--7-7-6---------------| x2
A |-4-4-4-4--6-6-5-4-4-4-4--7-7-6---------------|
E |----------4-4-3-2-2-2-2--5-5-4---------------|


Now the bass plays again...
[ Tab from: http://www.guitartabs.cc/tabs/g/good_charlotte/little_things_tab_ver_10.html ]

"DICK! Thiiiinnngggs, Thiiiinnngggs"
Pre-Chorus
e |---------------------------------------------|
B |---------------------------------------------|
G |-6-6-6-6-------------------------------------|
D |-6-6-6-6--6-6-5-4-4-4-4--7-7-6---------------| 
A |-4-4-4-4--6-6-5-4-4-4-4--7-7-6---------------|
E |----------4-4-3-2-2-2-2--5-5-4---------------|

e |---------------------------------------------|
B |---------------------------------------------|
G |-6-6-6-6-------------------------------------|
D |-6-6-6-6--6-6-5-4-4-4-4--7-7-7-7-7-7-7-7-----| 
A |-4-4-4-4--6-6-5-4-4-4-4--7-7-7-7-7-7-7-7-----|
E |----------4-4-3-2-2-2-2--5-5-5-5-5-5-5-5-----|



"Here we go! The little things, little things.."
CHORUS
e |---------------------------------------------|
B |---------------------------------------------|
G |-6-6-6-6-------------------------------------|
D |-6-6-6-6-6-6-6-6-4-4-4-4-7-7-7-7-------------| x4
A |-4-4-4-4-6-6-6-6-4-4-4-4-7-7-7-7-------------|
E |---------4-4-4-4-2-2-2-2-5-5-5-5-------------|


"You want to hate me now"
Bridge
e |---------------------|
B |---------------------|
G |---------------------|
D |-4--4-4---777777-----|x3 then on the last set...
A |-4--4-4---777777-----|
E |-2--2-2---555555-----|

e |------------------------------------------------|
B |------------------------------------------------|
G |------------------------------------------------|
D |-4--4-4---7-8-9-10-11-12-13-14-15-16-17-18-19---|
A |-4--4-4---7-8-9-10-11-12-13-14-15-16-17-18-19---|
E |-2--2-2---5-6-7-8--9--10-11-12-13-14-15-16-15---|


"Little things, little things, little things, little things"
CHORUS
e |---------------------------------------------|
B |---------------------------------------------|
G |-6-6-6-6-------------------------------------|
D |-6-6-6-6-6-6-6-6-4-4-4-4-7-7-7-7-------------| x4
A |-4-4-4-4-6-6-6-6-4-4-4-4-7-7-7-7-------------|
E |---------4-4-4-4-2-2-2-2-5-5-5-5-------------|


"Ohhhhhhhhhhhh, Ohhhhhhhhhhhh"
Outro
e |---------------------------------------------|
B |---------------------------------------------|
G |-6-6-6-6-------------------------------------|
D |-6-6-6-6--6-6-5-4-4-4-4--7-7-6---------------| x2
A |-4-4-4-4--6-6-5-4-4-4-4--7-7-6---------------|
E |----------4-4-3-2-2-2-2--5-5-4---------------|


Bass plays until the end of the song...
Comments