Good Charlotte - Little Things Chords & Tabs

 

Little Things Chords & Tabs

Good Charlotte Chords & Tabs

Version: 1 Type: Bass Tab 0 ratings
1 star 2 stars 3 stars 4 stars 5 stars
comments

Little Things Bass Tab

   
Song: Little Things
Artist: Good Charlotte


Tabbed by Schem, [br0ken@twistedinc.com] 
Well here's my (2nd) attempt at this song, corrections welcome!

http://www.basstabarchive.com/


I had to correct this tab, because that transition wasn't
sounding right. Sorry about that!

Standard tuning [E, A, D, G]

Intro:
G-|-------------------------------|-
D-|-------------------------------|-
A-|---44444-----------------------|-
E-|-----------444-3-22222---224-2-|-

G-|--------------------------------|-
D-|--------------------------------|-
A-|---44444------------------------|-
E-|-----------444-3-22222---2-4---|-



Pre-Verse:
G-|-------------------------------|-
D-|-------------------------------|-
A-|---44444-----------------------|-
E-|-----------444-3-22222---224-2-|-   x 4



Verse:
G-|-------------------------------|-
D-|-------------------------------|-
A-|---44444-----------------------|-
E-|-----------4p3-4-22222---2h4-2-|-   x 8

*The verse is played thru the prechorus


[ Tab from: http://www.guitartabs.cc/tabs/g/good_charlotte/little_things_btab.html ]
Chorus:
G-|-----------------------------------|-
D-|-----------------------------------|-
A-|---44444-4-------------------------|-
E-|-----------44444-4-22222-2/55555-5-|-   X 4 

Bridge 1
G-|-------------------------------|-
D-|-------------------------------|-
A-|-------------------------------|-
E-|---2-2-25-5-5-5---2-2-25-5-5-5-|-

G-|-------------------------------|-
D-|-------------------------------|-
A-|-------------------------------|-
E-|---2-2-25-5-5-5---2-2-25-6-7-8-|-



Bridge 2
G-|-------------------------------|-
D-|-------------------------------|-
A-|-------------------------------|-
E-|---2-2-25-5-5-5---2-2-25-5-5-5-|-

G-|------------------------------------------------------|-
D-|------------------------------------------------------|-
A-|------------------------------------------------------|-
E-|---2-2-25-5-5-5---2-2-25-6-7-8-9-10-11-12-13-14-15-16-|-

*The "10 11 12..." notes are played at the same speed as
 the "5 6 7...." notes (listen to the song =P) 

Structure -
  Intro
  Pre-Verse
  Verse
  Chorus
  Bridge 1
  Verse
  Chorus
  Bridge 2
  Verse

The song structure is really simple when you listen to the
song, even if it might look a little weird up there.

Comments