Good Charlotte - Lifestyles Of The Rich And The Famous Chords & Tabs

 

Lifestyles Of The Rich And The Famous Chords & Tabs

Good Charlotte Chords & Tabs

Version: 2 Type: Tab 0 ratings
1 star 2 stars 3 stars 4 stars 5 stars
comments

Lifestyles Of The Rich And The Famous Tab

   
Verse

e|--------------------------------------------------|
B|--------------------------------------------------|
G|-6-6------------8-8---------------------------6-6-|
D|-6-6------------8-8------------4-4------------6-6-|
A|-4-4------------6-6------------4-4------------4-4-|x2
E|-------------------------------2-2----------------|

Prechorus 1

e|-----------------------------------------------------------------|
B|-----------------------------------------------------------------|
G|---------------------------------6-6-6-6-6-6-6-6-----------------|
D|-8-8-8-8-8-8-8-8-4-4-4-4-4-4-4-4-6-6-6-6-6-6-6-6-6-6-6-6-6-6-6-6-|
A|-8-8-8-8-8-8-8-8-4-4-4-4-4-4-4-4-4-4-4-4-4-4-4-4-6-6-6-6-6-6-6-6-|x2
E|-6-6-6-6-6-6-6-6-2-2-2-2-2-2-2-2-----------------4-4-4-4-4-4-4-4-|

then
e|-----------------|
B|-----------------|
G|-----------------|
D|-4-4-4-4-4-4-4-4-|
A|-4-4-4-4-4-4-4-4-|
E|-2-2-2-2-2-2-2-2-|

Chorus

e|-----------------------------------------------------------------|
B|-----------------------------------------------------------------|
G|-6-6-6-6-6-6-6-6-8-8-8-8-8-8-8-8-----------------6-6-6-6-6-6-6-6-|
D|-6-6-6-6-6-6-6-6-8-8-8-8-8-8-8-8-4-4-4-4-4-4-4-4-6-6-6-6-6-6-6-6-|
A|-4-4-4-4-4-4-4-4-6-6-6-6-6-6-6-6-4-4-4-4-4-4-4-4-4-4-4-4-4-4-4-4-|x2
E|---------------------------------2-2-2-2-2-2-2-2-----------------|

Prechorus 2
[ Tab from: http://www.guitartabs.cc/tabs/g/good_charlotte/lifestyles_of_the_rich_and_the_famous_tab_ver_2.html ]
e|-----------------------------------------------------------------|
B|-----------------------------------------------------------------|
G|---------------------------------6-6-6-6-6-6-6-6-----------------|
D|-8-8-8-8-8-8-8-8-4-4-4-4-4-4-4-4-6-6-6-6-6-6-6-6-6---------------|
A|-8-8-8-8-8-8-8-8-4-4-4-4-4-4-4-4-4-4-4-4-4-4-4-4-6-3-4-3---------|x2
E|-6-6-6-6-6-6-6-6-2-2-2-2-2-2-2-2-----------------4-------6-4-6-2-|

then
e|---------------------------------|
B|---------------------------------|
G|---------------------------------|
D|-4-4-4-4-4-4-4-4-x-4-x-4-x-4-x-4-|
A|-4-4-4-4-4-4-4-4-x-4-x-4-x-4-x-4-|
E|-2-2-2-2-2-2-2-2-x-2-x-2-x-2-x-2-|

Last Chorus

e|-------------------------------------------------------------------|
B|-------------------------------------------------------------------|
G|-6-6-6-6-6-6-6-6-8-8-8-8-8-8-8-8-------------------6-6-6-6-6-6-6-6-|
D|-6-6-6-6-6-6-6-6-8-8-8-8-8-8-8-8-4-4-4-4-4-4-4-4-4-6-6-6-6-6-6-6-6-|
A|-4-4-4-4-4-4-4-4-6-6-6-6-6-6-6-6-4-4-4-4-4-4-4-4-4-4-4-4-4-4-4-4-4-|x3
E|---------------------------------2-2-2-2-2-2-2-2-2-----------------|

then
e|----------------------------------end on-------------|
B|-----------------------------------------------------|
G|-6-6-6-6-6-6-6-6-------------------------------------|
D|-6-6-6-6-6-6-6-6-4-4-4-4-4-4-4-4-----------4-4-4-4-4-|
A|-4-4-4-4-4-4-4-4-4-4-4-4-4-4-4-4-----------4-4-4-4-4-|
E|-----------------2-2-2-2-2-2-2-2-x3--------2-2-2-2-2-|

Theres nothing more to say than if you haven't already got 
Good Charlotte's new album then buy it, it rocks. Please rate this tab
I need your support. Thanx!

Comments