Good Charlotte - Lifestyles Of The Rich And The Famous Chords & Tabs

 

Lifestyles Of The Rich And The Famous Chords & Tabs

Good Charlotte Chords & Tabs

Version: 1 Type: Tab 0 ratings
1 star 2 stars 3 stars 4 stars 5 stars
comments

Lifestyles Of The Rich And The Famous Tab

Sheesh, you people are evil for making me think this up by myself… o well.. I think I’ve got it now…
By: Napoleon Bonaparte (this_is_confusing@hotmail.com)
Artist: Good Charlotte
Song: Lifestyles of the rich and the famous, or LOTRATF

Verse
E------------------------------------------------------------------
B-----------------------------------------------------------------
G---7-7-------9-9-------------------7-7-----------------------
D---7-7-------9-9------5-5----------7-7-----------------------   x2
A---5-5-------7-7------5-5----------5-5-----------------------
E----------------------3-3--------------------------------------
[ Tab from: http://www.guitartabs.cc/tabs/g/good_charlotte/lifestyles_of_the_rich_and_the_famous_tab.html ]
Billy and Benji play somewhat different parts………I’m not 100% about this, but I tried!
BENJI’S PART
Pre-Chorus
E----------------------------------------------------------------------------------------
B----------------------------------------------------------------------------------------
G---4-4-4-4-4-4-4-4------------------------7-7-7-7-7-7-7-7-------2-2-2-2-2-2-2-2--------
D---4-4-4-4-4-4-4-4-----5-5-5-5-5-5-5-5----7-7-7-7-7-7-7-7-------2-2-2-2-2-2-2-2--------
A---2-2-2-2-2-2-2-2-----5-5-5-5-5-5-5-5----5-5-5-5-5-5-5-5-------0-0-0-0-0-0-0-0--------
E-----------------------3-3-3-3-3-3-3-3-------------------------------------------------
BILLY’S PART                                                                               x2
Pre-Chorus
E------------------------------------------------------------------------------
B-----------------------------------------------------------------------------
G---4-4-4-4-4-4-4-4------------------------7-7-7-7-7-7-7-7-----2—5---7—5—4—2-
D---4-4-4-4-4-4-4-4-----5-5-5-5-5-5-5-5----7-7-7-7-7-7-7-7-----2—5—5—7—5—4—2-
A---2-2-2-2-2-2-2-2-----5-5-5-5-5-5-5-5----5-5-5-5-5-5-5-5-----0—3—5—5—3—2—0-
E-----------------------3-3-3-3-3-3-3-3----------------------------3----------

Chorus
E-----------------------------------------------------------------------------------
B----------------------------------------------------------------------------------
G---7-7-7-7-7-7-7-7-----9-9-9-9-9-9-9-9-------------------------7-7-7-7-7-7-7-7-----
D---7-7-7-7-7-7-7-7-----9-9-9-9-9-9-9-9-----5-5-5-5-5-5-5-5-----7-7-7-7-7-7-7-7----- x2
A---5-5-5-5-5-5-5-5-----7-7-7-7-7-7-7-7-----5-5-5-5-5-5-5-5-----5-5-5-5-5-5-5-5-----
E-------------------------------------------3-3-3-3-3-3-3-3-------------------------

Verse x2
Pre-chorus x2
Chorus x2
Verse x2 
Pre-chorus x2
There is no guitar in bridge
Chorus – how many times it takes to end the song
Comments