Good Charlotte - Lifestyles Of The Rich And Famous Chords & Tabs

 

Lifestyles Of The Rich And Famous Chords & Tabs

Good Charlotte Chords & Tabs

Version: 8 Type: Tab 0 ratings
1 star 2 stars 3 stars 4 stars 5 stars
comments

Lifestyles Of The Rich And Famous Tab

   
-------------------------------------------------------------------------------
		Lifestyles Of The Rich And Famous - Good Charlotte
-------------------------------------------------------------------------------

Tabbed by:Zero is great man
Tuning:EADGBe:Standard: Right.
Played with distortion.

Intro:(play it with no volume, then put it to the top and let ring)
e|----|
B|----|
G|-6--|
D|-6--|
A|-4--|
E|----|

Guitar 1: verse:        Guitar 2: verse:
e|--------------------||----------------------|
B|--------------------||----------------------|
G|-6-6--8-8-------6-6-||-6-6--8-8--11-11--6-6-|
D|-6-6--8-8--4-4--6-6-||-x-x--x-x---x--x--x-x-|
A|-4-4--6-6--4-4--4-4-||-4-4--6-6---9--9--4-4-|
E|-----------2-2------||----------------------|

Guitar 1: Prechorus:"I'd like to see them spend a week"
e|----------------------------------------------------||---|
B|----------------------------------------------------||---|\
G|---------------------------6-6-6-6-6-6--------------||---|  "Fall..."
D|-8-8-8-8-8-8--4-4-4-4-4-4--6-6-6-6-6-6--6-6-6-6-6-6-||-4-|/
A|-8-8-8-8-8-8--4-4-4-4-4-4--4-4-4-4-4-4--6-6-6-6-6-6-||-4-|
E|-6-6-6-6-6-6--2-2-2-2-2-2---------------4-4-4-4-4-4-||-2-|

Guitar 2: Prechorus:                        Second prechorus :Guitar fill
e|-----------------------------------------|-----------------|
B|-----------------------------------------|-----------------|
G|-------------------------------6---6-6---|-----------------|
D|-----8------------4---4-4----6---6-6-6--6|-----------------|
A|---8---8-8-8----4---4-4-4--4-------4-4--6|---3-3/6-3-4-----|
E|-6-------6-6--2-------2-2---------------4|-4-----------3-4-|
[ Tab from: http://www.guitartabs.cc/tabs/g/good_charlotte/lifestyles_of_the_rich_and_famous_tab_ver_8.html ]
Chorus Type 1:"Life styles of the rich and the famous"
e|--------------------------------------------------------------------|
B|--------------------------------------------------------------------|
G|-6-6-6-6-6-6-6-6--8-8-8-8-8-8-8-8-------------------6-6-6-6-6-6-6-6-|
D|-6-6-6-6-6-6-6-6--8-8-8-8-8-8-8-8--4-4-4-4-4-4-4-4--6-6-6-6-6-6-6-6-|
A|-4-4-4-4-4-4-4-4--6-6-6-6-6-6-6-6--4-4-4-4-4-4-4-4--4-4-4-4-4-4-4-4-|
E|-----------------------------------2-2-2-2-2-2-2-2------------------|

Interlude:
e|---------------------------------------------------------|
B|---------------------------------------------------------|
G|---------------------------------------------------------|
D|------------------------------3------------------------3-|
A|-4-4-4-4-4-4-4-4--2-4h-2-4h-2---2-4-4-4-4--2-4h-2-4h-2---|
E|---------------------------------------------------------|

Chorus Type 2:(Heavy)
e|----------------------------------------------------|
B|----------------------------------------------------|
G|----------------------------------------------------|
D|-6-6-6-6-6-6--8-8-8-8-8-8--4-4-4-4-4-4--6-6-6-6-6-6-|
A|-4-4-4-4-4-4--6-6-6-6-6-6--4-4-4-4-4-4--4-4-4-4-4-4-|
E|-4-4-4-4-4-4--6-6-6-6-6-6--2-2-2-2-2-2--4-4-4-4-4-4-|

Outro: "life styles of the rich and famous"
e|-------------------------------|
B|------------------5------------|
G|-11--------6------6------------|
D|-11-(x24)--6-(x4)-6(let ring)--|
A|-9---------4------4------------|
E|-------------------------------|


| /  slide up
| \  slide down
| h  hammer-on
| p  pull-off
| ~  vibrato
| +  harmonic
| x  Mute note

===============================================================================
Comments