Good Charlotte - Lifestyles Of The Rich And Famous Chords & Tabs

 

Lifestyles Of The Rich And Famous Chords & Tabs

Good Charlotte Chords & Tabs

Version: 6 Type: Tab 0 ratings
1 star 2 stars 3 stars 4 stars 5 stars
comments

Lifestyles Of The Rich And Famous Tab

Sup, enjoy.

Intro
e----------------------------------------------------------
b----------------------------------------------------------
g----6--6----8-8-----------6--6----------------------------
d----6--6----8-8----4-4----6--6----------------------------
a----4--4----6-6----4-4----4--4----------------------------
e-------------------2-2------------------------------------

e----------------------------------------------------------
b----------------------------------------------------------
g----6--6----8-8-----------6--6----------------------------
d----6--6----8-8----4-4----6--6----------------------------
a----4--4----6-6----4-4----4--4----------------------------
e-------------------2-2------------------------------------

Pre-Chorus
e----------------------------------------------------------
b----------------------------------------------------------
g----3--------------6--------------------------------------
d----3-------4------6------6-------------------------------
a----1-------4------4------6-------------------------------
e------------2-------------4-------------------------------
[ Tab from: http://www.guitartabs.cc/tabs/g/good_charlotte/lifestyles_of_the_rich_and_famous_tab_ver_6.html ]
e----------------------------------------------------------
b----------------------------------------------------------
g----3--------------6--------------------------------------
d----3-------4------6------6-------4-----------------------
a----1-------4------4------6-------4-----------------------
e------------2-------------4-------2-----------------------

Interlude
e----------------------------------------------------------
b----------------------------------------------------------
g----------------------------------------------------------
d---------------------------------------------------------- Played on the second 
a----------------------------------------------------------     interlude
e---4-4-4-4-4-4-4-4-4--------------------------------------

Chorus
e----------------------------------------------------------
b----------------------------------------------------------
g----6-------8-------------6-------------------------------
d----6-------8------4------6-------------------------------
a----4-------6------4------4-------------------------------
e-------------------2--------------------------------------

e----------------------------------------------------------
b----------------------------------------------------------
g----6-------8-------------6-------------------------------
d----6-------8------4------6-------------------------------
a----4-------6------4------4-------------------------------
e-------------------2--------------------------------------


That's basically the song. The Bridge part is played by the bass.
Comments