Good Charlotte - Lifestyles Of The Rich And Famous Chords & Tabs

 

Lifestyles Of The Rich And Famous Chords & Tabs

Good Charlotte Chords & Tabs

Version: 5 Type: Tab 0 ratings
1 star 2 stars 3 stars 4 stars 5 stars
comments

Lifestyles Of The Rich And Famous Tab

I spent countless hours listen to this song on my headphones to hear each
detail.....and watching the trl and conan obrien preformences over and over
to get this right. I havent figured out the part where on trl he yelled the
shout outs for those bands...but i do know billy is doing some pik scrapes and
benji is piking something i just didnt get it down and also theres one other
part that billy plays i havent figured out yet either but when i do ill post
it. Let me know what u think sk8r28sla@cs.com 

drop D tunning
[ Tab from: http://www.guitartabs.cc/tabs/g/good_charlotte/lifestyles_of_the_rich_and_famous_tab_ver_5.html ]
intro 
turn the volume down and striked the strings and turn the volume up
----|
----|
-5--|
-5--|
-3--|----|
-------------------------------------------|
-------------------------------------------|
-77-------77-------------------------------|
-77-22-55-77-------------------------------|
-55-22-55-55-------------------------------|
----22-55----------------------------------|
let the end ring on the 2nd time
verse 1
-------------------------------------------|
-------------------------------------------|
-77777777----------------------------------|
-77777777-22222222-55555555-55555555-------|
-55555555-22222222-55555555-55555555-------|
----------22222222-55555555-55555555-------|
verse 2
-------------------------------------------|
-------------------------------------------|
-------------------77777777----------------|
-22222222-55555555-77777777-22222222-------|
-22222222-55555555-55555555-22222222-------|
-22222222-55555555----------22222222-------|

interlude
-------------------------------------------|
-------------------------------------------|
-------------------------------------------|
-------------------------------------------|
-------------------------------------------|
-55-55-55-55-55----------------------------|

verse 3
-------------------------------------------|
-------------------------------------------|
-------------------------------------------|
-000000-222222-555555-000000---------------|
-000000-222222-555555-000000---------------|
-000000-222222-555555-000000---------------|
verse 4
-------------------------------------------|
-------------------------------------------|
-------------------------------------------|
-22222222-55555555-------------------------|
-22222222-55555555-------------------------|
-22222222-55555555-------------------------|

intro: 2xverse 1: 2x
verse 2: 2x
intro: 2x
verse 1: 2x
interlude
verse 2: 2x
verse 3: 2x
verse 4: 3x
Comments