Good Charlotte - Lifestyles Of The Rich And Famous Chords & Tabs

 

Lifestyles Of The Rich And Famous Chords & Tabs

Good Charlotte Chords & Tabs

Version: 4 Type: Tab 0 ratings
1 star 2 stars 3 stars 4 stars 5 stars
comments

Lifestyles Of The Rich And Famous Tab

This is the first tab I've posted, but I have tabbed before.  I could only find one tab for this
song and it sucked, so I figured I'd give it a try.  I think it's pretty good.
Feel free to mail me anything you want at dane_mchenry@hotmail.com

This song is tuned down 1/2 step and it's in drop D. 

Riff 1
|------------------------------------|
|------------------------------------|
|-77--------99------------------77---|
|-77--------99--------55--------77---|
|-55--------77--------55--------55---|
|---------------------55-------------|
[ Tab from: http://www.guitartabs.cc/tabs/g/good_charlotte/lifestyles_of_the_rich_and_famous_tab_ver_4.html ]
Riff 2
|-------------------------------------|---------|
|-------------------------------------|---------|
|-44444444----------77777777-99999999-|77777777-|
|-44444444-55555555-77777777-99999999-|77777777-|
|-22222222-55555555-55555555-77777777-|55555555-|
|----------55555555-------------------|---------|

Riff 3
|-------------------------------------|
|-------------------------------------|
|-------------------------------------|
|-00000000-22222222-55555555-00000000-|
|-00000000-22222222-55555555-00000000-|
|-00000000-22222222-55555555-00000000-|

Interlude
|-------|
|-------|
|-------|
|-------|
|-------|
|---0---|
Just keep hitting that note alot.

Riff 4
|-------------------|
|-------------------|
|-------------------|
|----------77777777-|
|-55555555-77777777-|
|-55555555-55555555-|
|-55555555----------|

Order:

Riff1 x 2
Riff2 x 2
Riff3 x 2
Riff1 x 2
Riff2 x 2
Riff3 x 2
Interlude
Riff3 x 3
Riff4 x 3
Comments