Good Charlotte - Lifestyles Of The Rich And Famous Chords & Tabs

 

Lifestyles Of The Rich And Famous Chords & Tabs

Good Charlotte Chords & Tabs

Version: 3 Type: Tab 0 ratings
1 star 2 stars 3 stars 4 stars 5 stars
comments

Lifestyles Of The Rich And Famous Tab

Good Charlotte - Lifestyles of The Rich and The Famous
tabbed by brendan

hey i decided to tab this song cos its so friggin good and there were
no tabs on ultimate guitar so here it is. play with heavy distortion.
i'm not sure if its all correct but its sounds pretty close.

drop d tuning

First riff
e------------------------------------------|
B------------------------------------------|
G--7-7--------9-9--------12-12--------7-7--|
D--7-7--------9-9--------12-12--------7-7--|
A--5-5--------7-7--------10-10--------5-5--|
D------------------------------------------|

Second riff
e------------------------------------------------------------|
B------------------------------------------------------------|
G------------------------------------------------------------|
D-------11-------------11-------------11-------------9-------|
A-----9-----12-9-----9-----12-9--5--9-----12-9-----7---------|
D--9--------------5-----------------------------7-------7-5--|
                                                   ^ ^
the second time round there is a variation on this 7&9
instead, the 7 on A becomes 9 on D, and 9 on D becomes 11 on G.
[ Tab from: http://www.guitartabs.cc/tabs/g/good_charlotte/lifestyles_of_the_rich_and_famous_tab_ver_3.html ]
'fall...' 0:45, after the second play of the second riff.
e----------------|
B----------------|
G----------------|
D-------9--------|
A-----7----10-7--|
D--7-------------|


chorus riff - play each one 8x, evenly spaced..
e--------------------|
B--------------------|
G--------------------|
D--0----2----5----0--|
A--0----2----5----0--|
D--0----2----5----0--|


little interlude bit
e-------------------------------|
B-------------------------------|
G-------------------------------|
D-------------------------------|
A-------------------------------|
D-5x5x--5x5x--5x5x--5x5x-5x-5x--|

heavy riff
e---------------------------------------------------------------------------|
B---------------------------------------------------------------------------|
G---------------------------------------------------------------------------|
D--0---0--0-0--0-0-0-2---2--2-2--2-2-2-5---5--5-5--5-5-5-0---0--0-0--0-0-0--|
A--0---0--0-0--0-0-0-2---2--2-2--2-2-2-5---5--5-5--5-5-5-0---0--0-0--0-0-0--|
D--0---0--0-0--0-0-0-2---2--2-2--2-2-2-5---5--5-5--5-5-5-0---0--0-0--0-0-0--|

ending riff - again, each 8x.
e----------|
B----------|
G----------|
D--2----0--|
A--2----0--|
D--2----0--|

ORDER
first riff x 2
second riff x 2
'fall...' x 1
chorus riff x 2
first riff x 2
second riff x 2
interlude bit
chorus riff x 2
heavy riff x 2
chorus riff x 1
ending riff - play it out.
Comments