Good Charlotte - Lifestyles Of The Rich And Famous Chords & Tabs

 

Lifestyles Of The Rich And Famous Chords & Tabs

Good Charlotte Chords & Tabs

Version: 2 Type: Tab 0 ratings
1 star 2 stars 3 stars 4 stars 5 stars
comments

Lifestyles Of The Rich And Famous Tab

This has been requested and im a huge GC fan, so here it is.

Title:Lifestyles of the Rich and the Famous
Band:Good Charlotte
Album:The Young and the Hopeless

Verse
It's got that chopping action, just listen to the song, if u don't 
understand what i mean.

|------------------------------------------------------------------|
|------------------------------------------------------------------|
|-6--6----8--8---9---9----6--6---Repeat once-----------------------|
|-6--6----8--8---9---9----6--6-------------------------------------|
|-4--4----6--6---11--11---4--4-------------------------------------|
|------------------------------------------------------------------|
[ Tab from: http://www.guitartabs.cc/tabs/g/good_charlotte/lifestyles_of_the_rich_and_famous_tab_ver_2.html ]
Pre Chorus
The strumming pattern is d,d,d,d,u,d,u,d,u.
|-----------------------------------------------------------------|
|-----------------------------------------------------------------|
|-1-----------6-----------repeat  once then end with--------------|
|-1-X9--4-----6-x9--6--------------------------------4------------|
|-3-----4-x9--4-----6-x9-----------------------------4-x9---------|
|-------2-----------4--------------------------------2------------|

Chorus
same strumming pattern as above
|-----------------------------------------------------------------|
|-----------------------------------------------------------------|
|-6-----1---------6-----------------------------------------------|
|-6-x9--1-x9-4----6-x9--------------------------------------------|
|-4-----3----4-x9-4-----------------------------------------------|
|------------2----------------------------------------------------|


Then repeat the verse, and chorus. The last chorus is all strummed
heavily! Just listen!

Later, zorpheus




Comments