Good Charlotte - Lifestyles Of The Rich And Famous Chords & Tabs

 

Lifestyles Of The Rich And Famous Chords & Tabs

Good Charlotte Chords & Tabs

Version: 1 Type: Tab 0 ratings
1 star 2 stars 3 stars 4 stars 5 stars
comments

Lifestyles Of The Rich And Famous Tab

Song: Lifestyles Of the Rich And Famous	
Artist: Good Charlotte
Tuning: Standard (EBGDAE)
Tabber: Rob Marston (rob@leftatom.com)
Notes: This song is pretty sweet. The video rocks too. 




Verse:

E-|---------------------------|
B-|---------------------------|
G-|---6-6---8-8---------6-6---| Repeat.
D-|---6-6---8-8---4-4---6-6---|
A-|---4-4---6-6---4-4---4-4---|
E-|---------------2-2---------|


Pre-Chorus:

E-|---------------------------|
B-|---------------------------|
G-|---3-3---------6-6---------| Use these chords. The last time you play it 
D-|---3-3---4-4---6-6---6-6---| End with this chord --> 244XXX
A-|---1-1---4-4---4-4---6-6---|
E-|---------2-2---------4-4---|

Here's the fingering that's used:
[ Tab from: http://www.guitartabs.cc/tabs/g/good_charlotte/lifestyles_of_the_rich_and_famous_tab.html ]
E-|----------------------------------------------------------|
B-|----------------------------------------------------------|
G-|----------------------------------------------------------|  
D-|------3---3--------------------6---6-------6--------------| 
A-|---s1---1---0------4---4-----4---4---0---4---4h6-4-3------|
E-|-----------------2---2---0---------------------------4~---|


Chorus:

E-|-------------------|
B-|-------------------|
G-|---6---8-------6---| Use these chords.  
D-|---6---8---4---6---| 
A-|---4---6---4---4---|
E-|-----------2-------|

The Extra Little Riff Thingy:

E-|---------------------------------------------------|
B-|---------------------------------------------------|
G-|---------------------------------------------------|  
D-|---------------------------------------------------| 
A-|---4-4---4-4---4-4---------2h3---4-4---4-4---4-4---|
E-|---------------------2h3---------------------------|



That's about it. This is the way I play it, and when its played along
with the CD it sounds, WAH-BAM, exactly the same. 
Comments