Good Charlotte - Lifestyles Of The Rich And Famous Chords & Tabs

 

Lifestyles Of The Rich And Famous Chords & Tabs

Good Charlotte Chords & Tabs

Version: 4 Type: Bass Tab 0 ratings
1 star 2 stars 3 stars 4 stars 5 stars
comments

Lifestyles Of The Rich And Famous Bass Tab

Song Lifestyles of the rich and famous Bass Tab
Band Good Charlotte
Album Young and the hopeless
Tabbed By 99brownd tell us how it is a danny_brown1988@hotmail.com
Tune down a half step Gb, Db, Ab, Eb And play all with a Pic apart from the bridge, it 
better than fingers
trust me I am a finger player.

* = Palm Mute
/ = Slide up
\ = slide Down
X = Muted Note
Intro (Drums) No BASS

Verse 1 (0:09)
Gb------------------------------|----------------------------------------|
Db-----------------55-----------|-------------------55555555-------------|
Ab-55------77--------------55---|-55555555-77777777----------55555555----|
Eb------------------------------|----------------------------------------|
                                  ******** ******** ******** ********
Pre-Chorus 1 (0:27)
Gb--------------------------------------------------------------------|
Db--------------------------------------------------------------------|
Ab-2-2222222----------5-5555555----------2-2222222----------5-5555555-|
Eb----------3-3333333----------5-5555555----------3-3333333-----------|

Gb----------------------|
Db----------------------|
Ab----------------------|
Eb-5-5555555-33333333---|



Chorus 1(0:50)
Gb-------------------------------------------------------------------|
Db-------------------55555555-------------------------------55555555-|
Ab-55555555-77777777----------55555555-00-55555555-77777777----------|
Eb-------------------------------------------------------------------|

Gb-----------|
Db-----------|
Ab-55555555--|
Eb-----------|

Verse 2-Play 2x (1:07)
Gb-----------------------------------------|
Db-------------------55555555--------------|Slide down to fret 2 at
Ab-55555555-77777777----------55555555\----|the end of the second one
Eb-----------------------------------------|and star pre-chorus 2.
   ******** ******** ******** ********
[ Tab from: http://www.guitartabs.cc/tabs/g/good_charlotte/lifestyles_of_the_rich_and_famous_btab_ver_4.html ]
Pre-Chorus 2 (1:25)
Gb-------------------------------------------------------------------|
Db-------------------------------------------------------------------|
Ab-2-2222222-----------5-5555555-----------------2-2222222-----------|
Eb-----------3-3333333-----------5--5--5-5-5-55\-----------3-3333333-|


Gb---------------------------------------------|
Db---------------------------------------------|
Ab-5-5555555-----------------------------------|
Eb-----------5-5555555-3-3333333----33--33--33-|
                                    xx  xx  xx


Chorus 1 (1:48)
Gb-------------------------------------------------------------------|
Db-------------------55555555-------------------------------55555555-|
Ab-55555555-77777777----------55555555-00-55555555-77777777----------|
Eb-------------------------------------------------------------------|

Gb-----------|
Db-----------|
Ab-55555555--|
Eb-----------|


Bridge-Play 7x (2:06)
Gb-------------|
Db-------------|
Ab-55555555----| (Can either play with thumb or pic.)
Eb-------------|
   ********

Ending Chorus-Play 1x (2:25)
Gb-------------------------------------------------------------------------|
Db-----------------------5-5-555555----------------------------------------|
Ab-5-5-555555-7-7-777777------------5-5-555555--00---5-5-555555-7-7-777777-|
Eb-------------------------------------------------------------------------|

Gb------------------------|
Db-5-5-555555-------------|
Ab------------------------|
Eb-----------5-5-555555---|

Chorus 1(2:43)1x
Gb-------------------------------------------------------------------|
Db-------------------55555555-------------------------------55555555-|
Ab-55555555-77777777----------55555555-00-55555555-77777777----------|
Eb-------------------------------------------------------------------|

Gb-----------|
Db-----------|
Ab-55555555--|
Eb-----------|


Ending 1x
Gb-----------------------------|
Db-------------------55555555--|
Ab-55555555-77777777-----------|
Eb-----------------------------|

All is in correct order. Please rate
Comments