Good Charlotte - It Wasnt Enough Chords & Tabs

 

It Wasnt Enough Chords & Tabs

Good Charlotte Chords & Tabs

Version: 1 Type: Bass Tab

It Wasnt Enough Bass Tab

   
This is the only bass tab that i can find
on the internet for this song
Tuning:Standard(E,A,D,G)
[ Tab from: http://www.guitartabs.cc/tabs/g/good_charlotte/it_wasnt_enough_btab.html ]
    Verse:
G|-----------------------------|
D|-----------------------------|
A|-4-4-44----------------------|
E|--------4-4-44-2-2-22-4-4-44-|
 
     Chorus
G|-------------------------|
D|-------------------------|
A|-44444444444-------------|
E|-------------44444444444-|

     Bridge:
G|----------------------|
D|-0~--------0~---------|
A|------1~--------1~----|
E|----------------------|

On the secong verse you know the timings off a bit 
but you know how many times to hit the strings :)