Good Charlotte - In This World Murder Chords & Tabs

 

In This World Murder Chords & Tabs

Good Charlotte Chords & Tabs

Version: 1 Type: Bass Tab 0 ratings
1 star 2 stars 3 stars 4 stars 5 stars
comments

In This World Murder Bass Tab

Song: In This World (Murder)
Band: Good Charlotte
Album: The Chronicles Of Life & Death (2004)
Track: 14
Tabbed By: GSTx

Hey you bassists! What's on? I'm from Argentina and I'm 17. Listen a few music of
Mudvayne, my favorite band. There's an awesome bass in their whole songs. Listen
carefully to get a new bass' influence.

Intro:
|-------------------------------------------------|
|-------------------------------------------------|
|-0~~~~~~---------------*12~~~~-------------------|
|-------------------------------------------------|
    ~let ring           *harmoníc
Chorus:
|-----------------------------------------------------|
|------------------------------5-----5----------------|
|---------------------------333-33333-33--------------|
|-444444444444-333333333333--------------555555555555-|

Chorus Continued: (11's) (10's)
|---------------------------------------------------|
|---------------------------------------------------|
|-111111111111111111111111-101010101010101010101010-|
|---------------------------------------------------|
[ Tab from: http://www.guitartabs.cc/tabs/g/good_charlotte/in_this_world_murder_btab.html ]
Verse:
|----------------------------------------------------------------------|
|----------------------------------------------------------------7~----|
|-3333--3333-33333-55555--5555-55555-33333--3333-3333-5555--5555-----5-|
|----------------------------------------------------------------------|
 
|------------------------------------------------------------7-----5-|
|-----------------------------------------------------------7-7---5--|
|-3333--3333-33333-55555--5555-55555-33333--3333-3333-5555-5---5-3---|
|--------------------------------------------------------------------|
                                                          ...it's murder...
The very Intro like the Pre-Chorus.
Chorus.

Bridge: (After 2nd Chorus)    4x
|-----------------------------|
|-----------------------------|
|--------333333-777777--------|
|-555555---------------444444-|

|---------------------------------------------------------------------------------|
|---------------------------------------------------------------------------------|
|-3333-3333-3333-3333-----------------------------------------3333-3333-3333-3333-|
|---------------------5555-5555-5555-5555-0000-0000-0000-0000---------------------|
  Murder!    Innocent life!      Innocent what!  What have we done?!

Last Chorus:
|-----------------------------------------------------|
|-----------------------------------------------------|
|-----------------------------------------------------|
|-333333333333-000000000000-444444444466-333333333333-|

Outro:
|-----------------------------------------------------|
|-----------------------------------------------------|
|-3~~---------11~~---10~~-----------------------------|
|-------5~~-------------------------------------------|
(The end of the song is pretty complex and rare, but you have the main pt!)

That's it! Enjoy! I need your vote, so rate please. F*ck off!
Comments