Good Charlotte - Im Down Chords & Tabs

 

Im Down Chords & Tabs

Good Charlotte Chords & Tabs

Version: 1 Type: Tab 0 ratings
1 star 2 stars 3 stars 4 stars 5 stars
comments

Im Down Tab

Good Charlotte - I'm Down

-------------------------------------------------------------------------------
			     

Tuning: Normal
Intro/ verse

e|-----------------------------------------------------------------------------|
B|---------------5-----------------5-------------------------------------------|
G|------------6-----6-----------6-----6------------x14-------------------------|
D|---------6-----------6-----6-----------6-------------------------------------|
A|------4-----------------0-----------------4----------------------------------|
E|-----------------------------------------------------------------------------|


e|------------------------|
B|------------------------|
G|-----66666666-----------|
D|-----66666666--77777777-|
A|-----44444444--77777777-|
E|---------------55555555-|


Chorus

e|-----------------------------------------------------|
B|-----------------------------------------------------|
G|-----------------------------------------------------|
D|-4444444444444444--7777777777777777------------------|
A|-4444444444444444--7777777777777777------------------|
E|-2222222222222222--5555555555555555------------------|

e|---------------------------------------------------------------------------|
B|---------------------------------------------------------------------------|
G|---------------------------------------------------------------------------|
D|-----44444444--777-7-7-----------------------------------------------------|
A|-----44444444--777-7-7-----------------------------------------------------|
E|-----22222222--555-5-5-----------------------------------------------------|

Verse

e|-----------------------------------------------------------------------------|
B|---------------5-----------------5-------------------------------------------|
G|------------6-----6-----------6-----6------------x8--------------------------|
D|---------6-----------6-----6-----------6-------------------------------------|
A|------4-----------------0-----------------4----------------------------------|
E|-----------------------------------------------------------------------------|


e|------------------------|
B|------------------------|
G|-----66666666-----------|
D|-----66666666--77777777-|
A|-----44444444--77777777-|
E|---------------55555555-|
Chorus
[ Tab from: http://www.guitartabs.cc/tabs/g/good_charlotte/im_down_tab.html ]
e|-----------------------------------------------------|
B|-----------------------------------------------------|
G|-----------------------------------------------------|
D|-4444444444444444--7777777777777777------------------|
A|-4444444444444444--7777777777777777-----x2-----------|
E|-2222222222222222--5555555555555555------------------|

e|---------------------------------------------------------------------------|
B|---------------------------------------------------------------------------|
G|---------------------------------------------------------------------------|
D|-----44444444--777-7-7-----------------------------------------------------|
A|-----44444444--777-7-7-----------------------------------------------------|
E|-----22222222--555-5-5-----------------------------------------------------|

Bridge

e|-----------------------------------------------------|
B|-----------------------------------------------------|
G|-----666---------------------------------------------|
D|-----666-7777----------------------------------------|
A|-----444-7777------x8--------------------------------|
E|---------5555----------------------------------------|

e|------------------------------------------------------------------|
B|------------------------------------------------------------------|
G|-----666------4444------------------------------------------------|
D|-----666-7777-4444-4444-------x8----------------------------------|
A|-----444-7777-2222-4444-------------------------------------------|
E|---------5555------2222-------------------------------------------|

Outro

e|------------------------------------------------------------------|
B|------------------------------------------------------------------|
G|-----666----------4444--------------------------------------------|
D|-----666-7777-----4444-4444----x4---------------------------------|
A|-----444-7777-----2222-4444---------------------------------------|
E|---------5555----------2222---------------------------------------|

e|------------------------------------------------------------------|
B|------------------------------------------------------------------|
G|-----666------4444------------------------------------------------|
D|-----666-7777-4444-4444-------x4----------------------------------|
A|-----444-7777-2222-4444-------------------------------------------|
E|---------5555------2222-------------------------------------------|
Comments