Good Charlotte - I Just Wanna Live Chords & Tabs

 

I Just Wanna Live Chords & Tabs

Good Charlotte Chords & Tabs

Version: 6 Type: Tab 0 ratings
1 star 2 stars 3 stars 4 stars 5 stars
comments

I Just Wanna Live Tab

I JUST WANNA LIVE by: Good Charlotte

Tab by: Aaron Meredith

Tuning is 1/2 step down:(Eb-Ab-Db-Gb-Bb-eb)

Chorus 1:
eb|-2---2---------5-5-----3---3-3------5-5------|    |---2---|
Bb|-3---3---------5-5-----3---3-3------5-5------|    |---3---|
Gb|-4---4-x-x-x-x-6-6-x-x-4---4-4--x-x-6-6-x-x--|x4  |---4---|
Db|-4---4-x-x-x-x-7-7-x-x-5---5-5--x-x-7-7-x-x--|    |---4---|
Ab|-2---2-x-x-x-x-7-7-x-x-5---5-5--x-x-7-7-x-x--|    |---2---|
Eb|-x---x---------5-5-----3---3-3------5-5------|    |---x---|


Chorus 2:
eb|-2---2-2------5-5-----3---3-3------5-5------|       
Bb|-3---3-3------5-5-----3---3-3------5-5------|       
Gb|-4---4-4--x-x-6-6-x-x-4---4-4--x-x-6-6-x-x--|x3     
Db|-4---4-4--x-x-7-7-x-x-5---5-5--x-x-7-7-x-x--|       
Ab|-2---2-2--x-x-7-7-x-x-5---5-5--x-x-7-7-x-x--|       
Eb|-x---x-x------5-5-----3---3-3------5-5------| 

eb|-2---2-2------5-5-----0--0--0---------------|
Bb|-3---3-3------5-5-----0--0--0---------------|
Gb|-4---4-4--x-x-6-6-x-x-1--1--1---------------|
Db|-4---4-4--x-x-7-7-x-x-2--2--2---------------|
Ab|-2---2-2--x-x-7-7-x-x-2--2--2---------------|
Eb|-x---x-x------5-5-----0--0--0---------------|

[ Tab from: http://www.guitartabs.cc/tabs/g/good_charlotte/i_just_wanna_live_tab_ver_6.html ]
Pre-Chorus: 
eb|-2---2-2------5-5-----3---3-3------5-5-------2---2-2------5-5-----3--|
Bb|-3---3-3------5-5-----3---3-3------5-5-------3---3-3------5-5-----3--|
Gb|-4---4-4--x-x-6-6-x-x-4---4-4--x-x-6-6-x-x---4---4-4--x-x-6-6-x-x-4--|
Db|-4---4-4--x-x-7-7-x-x-5---5-5--x-x-7-7-x-x---4---4-4--x-x-7-7-x-x-5--|
Ab|-2---2-2--x-x-7-7-x-x-5---5-5--x-x-7-7-x-x---2---2-2--x-x-7-7-x-x-5--|
Eb|-x---x-x------5-5-----3---3-3------5-5-------x---x-x------5-5-----3--|


Chorus 3:
eb|-2---2-2------5-5-----3---3-3------5-5------|   |-2---2-2------5-5---0~-|
Bb|-3---3-3------5-5-----3---3-3------5-5------|   |-3---3-3------5-5---0~-|
Gb|-4---4-4--x-x-6-6-x-x-4---4-4--x-x-6-6-x-x--|x2 |-4---4-4--x-x-6-6-x-1~-|
Db|-4---4-4--x-x-7-7-x-x-5---5-5--x-x-7-7-x-x--|   |-4---4-4--x-x-7-7-x-2~-|
Ab|-2---2-2--x-x-7-7-x-x-5---5-5--x-x-7-7-x-x--|   |-2---2-2--x-x-7-7-x-2~-|
Eb|-x---x-x------5-5-----3---3-3------5-5------|   |-x---x-x--x-x-5-5-x-0~-|


Chorus 4:
eb|-2---2-2------5-5-----3---3-3------5-5------|   |-2---2-2------5-5---0~-|
Bb|-3---3-3------5-5-----3---3-3------5-5------|   |-3---3-3------5-5---0~-|
Gb|-4---4-4--x-x-6-6-x-x-4---4-4--x-x-6-6-x-x--|x3 |-4---4-4--x-x-6-6-x-1~-|
Db|-4---4-4--x-x-7-7-x-x-5---5-5--x-x-7-7-x-x--|   |-4---4-4--x-x-7-7-x-2~-|
Ab|-2---2-2--x-x-7-7-x-x-5---5-5--x-x-7-7-x-x--|   |-2---2-2--x-x-7-7-x-2~-|
Eb|-x---x-x------5-5-----3---3-3------5-5------|   |-x---x-x--x-x-5-5-x-0~-|
Comments