Good Charlotte - I Just Wanna Live Chords & Tabs

 

I Just Wanna Live Chords & Tabs

Good Charlotte Chords & Tabs

Version: 4 Type: Tab 0 ratings
1 star 2 stars 3 stars 4 stars 5 stars
comments

I Just Wanna Live Tab

   
Band: Good Charlotte
Song: I Just Wanna Live
Album: The Chronicles of Life And Death

Standard Tuning

chorus 1
e|---------------------------------------|x4
B|---------------------------------------|
G|-15-15-xxx-13-13-xx-11-11-xxx-13-13-xx-|
D|-15-15-xxx-13-13-xx-11-11-xxx-13-13-xx-|
A|-13-13-xxx-11-11-xx-9--9--xxx-11-11-xx-|
E|---------------------------------------|
then
e|----|
B|----|
G|-15-|
D|-15-|
A|-13-|
E|----|

Chorus 2:
e|---------------------------------------|x3
B|---------------------------------------|
G|-15-15-xxx-13-13-xx-11-11-xxx-13-13-xx-|
D|-15-15-xxx-13-13-xx-11-11-xxx-13-13-xx-|
A|-13-13-xxx-11-11-xx-9--9--xxx-11-11-xx-|
E|---------------------------------------|
then
e|--------------------------------|
B|--------------------------------|
G|-15-15-xxx-13-13-xx-13----------|
D|-15-15-xxx-13-13-xx-13-13-13-13-|
A|-13-13-xxx-11-11-xx-13-13-13-13-|
E|--------------------11-11-11-11-|
[ Tab from: http://www.guitartabs.cc/tabs/g/good_charlotte/i_just_wanna_live_tab_ver_4.html ]
Bridge:
e|---------------------------------------|
B|---------------------------------------|
G|-15-15-xxx-13-13-xx-11-11-xxx-13-13-xx-|
D|-15-15-xxx-13-13-xx-11-11-xxx-13-13-xx-|
A|-13-13-xxx-11-11-xx-9--9--xxx-11-11-xx-|
E|---------------------------------------|
then
e|-----------------------|
B|-----------------------|
G|-15-15-xxx-13-13-xx-11-|
D|-15-15-xxx-13-13-xx-11-|
A|-13-13-xxx-11-11-xx-9--|
E|-----------------------|

Chorus 3:
e|---------------------------------------|x2
B|---------------------------------------|
G|-15-15-xxx-13-13-xx-11-11-xxx-13-13-xx-|
D|-15-15-xxx-13-13-xx-11-11-xxx-13-13-xx-|
A|-13-13-xxx-11-11-xx-9--9--xxx-11-11-xx-|
E|---------------------------------------|
then
e|-----------------------|
B|-----------------------|
G|-15-15-xxx-13-13-xx-13-|
D|-15-15-xxx-13-13-xx-13-|
A|-13-13-xxx-11-11-xx-13-|
E|--------------------11-|
then
e|---------------------------------------|x3
B|---------------------------------------|
G|-15-15-xxx-13-13-xx-11-11-xxx-13-13-xx-|
D|-15-15-xxx-13-13-xx-11-11-xxx-13-13-xx-|
A|-13-13-xxx-11-11-xx-9--9--xxx-11-11-xx-|
E|---------------------------------------|
then
e|-----------------------|
B|-----------------------|
G|-15-15-xxx-13-13-xx-13-|
D|-15-15-xxx-13-13-xx-13-|
A|-13-13-xxx-11-11-xx-13-|
E|--------------------11-|

hope it's correct!!i love this song!
Comments