Good Charlotte - I Just Wanna Live Chords & Tabs

 

I Just Wanna Live Chords & Tabs

Good Charlotte Chords & Tabs

Version: 4 Type: Bass Tab 0 ratings
1 star 2 stars 3 stars 4 stars 5 stars
comments

I Just Wanna Live Bass Tab

   
I JUST WANNA LIVE
As recorded by Good Charlotte
(From the 2005 Album THE CHRONICLES OF LIFE AND DEATH)

Transcribed by Bungshal
	
Words and Music by Good Charlotte
Arranged by Adam Hutchison

DADG Tuning
  Intro        
  Q=115
 4/4
  Gtr I
  Wx3          H..       E
|------------|-------------|
|------------|-------------|
|------------|-------------|
|------------|-----------6-|


   Verse
    E Q  E E Q  E   E Q  E E Q  E   E Q  E E Q  E   E Q  E E Q  E
||----------------|---------------|---------------|-----------------||
||o---------------|---------------|---------------|----------------o||
||o---------------|---------------|---------------|----------------o||
||--8----8-6----6-|-4----4-6----6-|-8----8-6----6-|-4----4-6----6---||


  E E E E E E E E   E E E E E E E E   E E E E E E E E    E H..
|-----------------|-----------------|-----------------|-----------|
|-----------------|-----------------|-----------------|-----------|
|-----------------|-----------------|-----------------|-----------|
|-8-8-8-8-8-8-8-8-|-6-6-6-6-6-6-6-6-|-4-4-4-4-4-4-4-4-|-11--------|


   Chorus
    Gtrs I, II
    Q  E +S  S S S E Q     Q  E +S  S S S E Q
||-----------------------|---------------------|
||o----------------------|---------------------|
||o----------------------|---------------------|
||--8--8-(8)-8-8-8-6-6\--|-4--4-(4)-4-4-4-6-6--|


  Q  E +S  S S S E Q     Q  E +S  S S S E Q
|----------------------|----------------------||
|----------------------|---------------------o||
|----------------------|---------------------o||
|-8--8-(8)-8-8-8-6-6\--|-4--4-(4)-4-4-4-6-6---||


                Verse
                 Gtr I
  Wx2            E Q  E E Q  E   E Q  E E Q  E
|------------||----------------|---------------|
|------------||o---------------|---------------|
|------------||o---------------|---------------|
|------------||--8----8-6----6-|-4----4-6----6-|


                 1.
  E Q  E E Q  E   E Q  E E Q  E
|---------------|----------------||
|---------------|---------------o||
|---------------|---------------o||
|-8----8-6----6-|-4----4-6-------||


  2.
  E Q  E E Q  E   E E E E E E E E
|---------------|-----------------|
|---------------|-----------------|
|---------------|-----------------|
|-4----4-6----6-|-8-8-8-8-8-8-8-8-|


  E E E E E E E E   E E E E E E E E    E H..
|-----------------|-----------------|-----------|
|-----------------|-----------------|-----------|
|-----------------|-----------------|-----------|
|-6-6-6-6-6-6-6-6-|-4-4-4-4-4-4-4-4-|-11--------|


   Chorus
    Gtrs I, II
    Q  E +S  S S S E Q     Q  E +S  S S S E Q
||-----------------------|---------------------|
||o----------------------|---------------------|
||o----------------------|---------------------|
||--8--8-(8)-8-8-8-6-6\--|-4--4-(4)-4-4-4-6-6--|


                        1.
  Q  E +S  S S S E Q     Q  E +S  S S S E Q
|----------------------|----------------------||
|----------------------|---------------------o||
|----------------------|---------------------o||
|-8--8-(8)-8-8-8-6-6\--|-4--4-(4)-4-4-4-6-6---||


 Interlude
  2.
                  Gtr I
  Q  Q  Q  +Q     E E E E E E E E   E E E E E E E E
|---------------|-----------------|-----------------|
|---------------|-----------------|-----------------|
|---------------|-----------------|-----------------|
|-1--1--1--(1)--|-4-4---4-4-4---4-|-6-6---6-6-6---6-|

[ Tab from: http://www.guitartabs.cc/tabs/g/good_charlotte/i_just_wanna_live_btab_ver_4.html ]
  E E E E E E E E   E E E E E E E E
|-----------------|-----------------|
|-----------------|-----------------|
|-----------------|-----------------|
|-4-4---4-4-4---4-|-8-8---8-6-6---6-|


  E E E E E E E E   E E E E E E E E   E E E E E E E E   E E E E E E E E
|-----------------|-----------------|-----------------|-----------------|
|-----------------|-----------------|-----------------|-----------------|
|-----------------|-----------------|-----------------|---------3-3-8-8-|
|-4-4---4-4-4---4-|-6-6---6-6-6---6-|-4-4---4-4-4---4-|-3-3-6-6---------|


 Out-Chorus
  Gtrs I, II
  Q  E +S  S S S E Q     Q  E +S  S S S E Q
|----------------------|---------------------|
|----------------------|---------------------|
|----------------------|---------------------|
|-8--8-(8)-8-8-8-6-6\--|-4--4-(4)-4-4-4-6-6--|


  Q  E +S  S S S E E S S   E H..
|------------------------|----------|
|------------------------|----------|
|------------------------|----------|
|-8--8-(8)-8-8-8-6-6-6-6-|-4--------|


  Q  E +S  S S S E Q     Q  E +S  S S S E Q
|----------------------|---------------------|
|----------------------|---------------------|
|----------------------|---------------------|
|-8--8-(8)-8-8-8-6-6\--|-4--4-(4)-4-4-4-6-6--|


  Q  E +S  S S S E Q     Q  E +S  S S S E Q
|----------------------|----------------------|
|----------------------|----------------------|
|----------------------|----------------------|
|-8--8-(8)-8-8-8-6-6\--|-4--4-(4)-4-4-4-6-6---|


  Q  E +S  S S S E Q     E E E E  E  E  E  E
|----------------------|---------------------|
|----------------------|---------------------|
|----------------------|---------------------|
|-8--8-(8)-8-8-8-6-6\--|-1-1-1-1S13-13-13-13-|


  Q  E +S  S S S E Q     Q  E +S  S S S E Q
|----------------------|---------------------|
|----------------------|---------------------|
|----------------------|---------------------|
|-8--8-(8)-8-8-8-6-6\--|-4--4-(4)-4-4-4-6-6--|


  Q  E +S  S S S E Q     Q  E +S  S S S E Q
|----------------------|---------------------|
|----------------------|---------------------|
|----------------------|---------------------|
|-8--8-(8)-8-8-8-6-6\--|-4--4-(4)-4-4-4-6-6--|


  Q  E +S  S S S E Q     Q  E +S  S S S E Q
|----------------------|----------------------|
|----------------------|----------------------|
|----------------------|----------------------|
|-8--8-(8)-8-8-8-6-6\--|-4--4-(4)-4-4-4-6-6---|


  Q  E +S  S S S E Q     W
|----------------------|------*|
|----------------------|------*|
|----------------------|------*|
|-8--8-(8)-8-8-8-6-6\--|-1----*|



Duration Legend
---------------
W - whole; H - half; Q - quarter; E - 8th; S - 16th; T - 32nd; X - 64th; a - acciaccatura
+ - note tied to previous; . - note dotted; .. - note double dotted
Uncapitalized letters represent notes that are staccato (1/2 duration)
Irregular groupings are notated above the duration line
Duration letters will always appear directly above the note/fret number it represents the
duration for.  Duration letters with no fret number below them represent rests.  Multi-
bar rests are notated in the form Wxn, where n is the number of bars to rest for.  Low
melody durations appear below the staff

Tablature Legend
----------------
 h   - hammer-on
 p   - pull-off
 b   - bend
 pb  - pre-bend
 r   - bend release (if no number after the r, then release immediately)
 /\  - slide into or out of (from/to "nowhere")
 s   - legato slide
 S   - shift slide
 - natural harmonic
[n]  - artificial harmonic
n(n) - tapped harmonic
 ~   - vibrato
 tr  - trill
 T   - tap
 TP  - trem. picking
 PM  - palm muting
\n/  - tremolo bar dip; n = amount to dip
 \n  - tremolo bar down
 n/  - tremolo bar up
/n\  - tremolo bar inverted dip
 =   - hold bend; also acts as connecting device for hammers/pulls
 <> - volume swell (louder/softer)
 x   - on rhythm slash represents muted slash
 o   - on rhythm slash represents single note slash

Misc Legend
-----------
 |  - bar
||  - double bar
||o - repeat start
o|| - repeat end
*|  - double bar (ending)
 :  - bar (freetime)
 $  - Segno
 &  - Coda
Tempo markers -  = BPM(8/16=s8/s16), where s8 = swing 8ths, s16 = swing 16ths
Comments