Good Charlotte - I Just Wanna Live Chords & Tabs

 

I Just Wanna Live Chords & Tabs

Good Charlotte Chords & Tabs

Version: 3 Type: Bass Tab 0 ratings
1 star 2 stars 3 stars 4 stars 5 stars
comments

I Just Wanna Live Bass Tab

   
+-------------------------------------------------------------------|
| Song: I Just Wanna Live                                           |
| Album: The Chronicles Of Life And Death (2004)                    |
| Tuning: Eb A D G                                                  |
| Tabbed by: vi3x [vi3x@libero.it]                         |
+-------------------------------------------------------------------+

Cello Intro:
G |----------3---3---3---3---3---3----|
D |--8---8----------------------------| x2
A |-----------------------------------| 
Eb|----7---7---5---5---3---3---5---5--|

Verse 1:
G |----------------------------|
D |----------------------------| x4
A |----------------------------|
Eb|--5-7----7-5----5-3----3-5--|

Prechorus 1:
G |-----------------------------------------|
D |-----------------------------------------|
A |-----------------------------------------|
Eb|--7--7--7--7--5--5--5--5--3--3--3--3--0--|

Chorus:
G |--------------|--------------|          |-----|
D |--------------|--------------| x4, then |-----|
A |--------------|--------------|          |-----|
Eb|--7--7---5-5--|--3--3---5-5--|          |--7--|

Verse 2:
G |------------------------------------------------------|          |-----|
D |------------------------------------------------------| x2, then |-----|
A |------------------------------------------------------|          |-----|
Eb|--7----7-5----5-3----3-5----5-7----7-5----5-3----3-5--|          |--5--|
[ Tab from: http://www.guitartabs.cc/tabs/g/good_charlotte/i_just_wanna_live_btab_ver_3.html ]
Prechorus 2:
G |-----------------------------------------|
D |-----------------------------------------|
A |-----------------------------------------|
Eb|--7--7--7--7--5--5--5--5--3--3--3--3--3--|

Chorus 2:
G |--------------|--------------|         
D |--------------|--------------| x3
A |--------------|--------------|          
Eb|--7--7---5-5--|--3--3---5-5--|

G |--------------|-----------|
D |--------------|-----------|
A |--------------|-----------|          
Eb|--7--7---5-5--|--0-0-0-0--|

Bridge:                                 
G |--------------------------------------|--------------|
D |--------------------------------------|--------------|
A |--------------------------------------|--------------|
Eb|--3--3--3--3--5--5--5--5--3--3--3--3--|--7--7--5--5--|

G |--------------------------------------|----------------------|
D |--------------------------------------|-----------------3-3--|
A |--------------------------------------|-------0-0--3-3-------|
Eb|--3--3--3--3--5--5--5--5--3--3--3--3--|--2-2-----------------|

G |--------------|--------------|--------------|-----|         
D |--------------|--------------|--------------|-----|
A |--------------|--------------|--------------|-----|          
Eb|--7--7---5-5--|--3--3---5-5--|--7--7---5-5--|--3--|

Chorus 3:
G |--------------|--------------|         
D |--------------|--------------| x2
A |--------------|--------------|          
Eb|--7--7---5-5--|--3--3---5-5--|

G |--------------|--------|
D |--------------|--------|
A |--------------|--------|
Eb|--7--7---5-5--|--0...--|

G |--------------|--------------|         
D |--------------|--------------| x3
A |--------------|--------------|          
Eb|--7--7---5-5--|--3--3---5-5--|

G |--------------|--------|
D |--------------|--------|
A |--------------|--------|
Eb|--7--7---5-5--|--0...--|
Comments