Good Charlotte - I Heard You Chords & Tabs

 

I Heard You Chords & Tabs

Good Charlotte Chords & Tabs

Version: 1 Type: Tab 0 ratings
1 star 2 stars 3 stars 4 stars 5 stars
comments

I Heard You Tab

Good Charlotte
I Heard You

Standard Tuning

(EADGBe)
INTRO
Guitar One
Key:
<<<<<<< = Pick Scrape
XXXXXXX = Palm Mute
(     ) = First Time Only

e|------------------------------------------------------
B|------------------------------------------------------
G|-5-4-5-5-4-5-4-5-4-5-5-4-5-4-5-4-5-4-5-5-4---5-7-5---- x2
D|------------------------------------------------------
A|------------------------------------------------------
E|------------------------------------------------------

Guitar Two

e|------------------------------------------------------
B|------------------------------------------------------
G|------------------55555555--------99999-1010101010---
D|(<<<<<<<<<<<<<<<)-55555555-555555-99999-1010101010--- x2
A|(<<<<<<<<<<<<<<<)-33333555-555555-77777--8-8-8-8-8---
E|(<<<<<<<<<<<<<<<)----------333333--------------------
                ( )=First Time Only
Bass Verse

CHORUS 

Guitar Two
e|------------------------------------------------------
B|------------------------------------------------------
G|---------55555---------99999--1010101010--------------
D|(<<<<<<)-55555--55555--99999--1010101010-------------- x4
A|(<<<<<<)-33333--55555--77777---8-8-8-8-8--------------
E|(<<<<<<)--------33333---------------------------------
            ( )= First time only
Intro x1

Bass Verse
[ Tab from: http://www.guitartabs.cc/tabs/g/good_charlotte/i_heard_you_tab.html ]
Guitar One play this right before second chorus instead of pick scrape.
e|-------------|
B|-------------|
G|-5-4-5-7-5---|
D|-------------|
A|-------------|
E|-------------|

Chorus x1

Bridge 

Guitar One & Two

e|-------------------------------------------------------
B|-------------------------------------------------------
G|-5~~~~~~~~~~~~~~~~---------------9~~~~~~~~~~10~~~~~~~~~
D|-5~~~~~~~~~~~~~~~~5~~~~~~~~~~~~~~9~~~~~~~~~~10~~~~~~~~~
A|-3~~~~~~~~~~~~~~~~5~~~~~~~~~~~~~~7~~~~~~~~~~-8~~~~~~~~~
E|------------------3~~~~~~~~~~~~~~----------------------

e|-------------------------------------------------------
B|-------------------------------------------------------
G|5~~~~~~~~~~~~~~~~~~~~~~~~~~~~~~9~~~~~~~~~~~10~~~~~~~~~~
D|5~~~~~~~~~~~~~~~~5~~~~~~~~~~~~~9~~~~~~~~~~~10~~~~~~~~~~
A|3~~~~~~~~~~~~~~~~5~~~~~~~~~~~~~7~~~~~~~~~~~-8~~~~~~~~~~
E|-----------------3~~~~~~~~~~~~~------------------------

e|------------------------------------------------------
B|------------------------------------------------------
G|5-55555555-------------9-99999999-10-1010101010101010-
D|5-55555555--5-55555555-9-99999999-10-1010101010101010- x2
A|3-33333333--5-55555555-7-77777777--8--8-8-8-8-8-8-8-8-
E|------------3-33333333--------------------------------
    XXXXXXXX    XXXXXXXX   XXXXXXXX    
X=Palm Mute

Chorus x1

Intro x2

End On
   Guitar One  | Guitar Two
e|-------------|------|
B|-------------|------|
G|--10---------|--5---|
D|--10---------|------|
A|---8---------|------|
E|-------------|------|

Thats It
100% Perfect
Comments