Good Charlotte - I Heard You Chords & Tabs

 

I Heard You Chords & Tabs

Good Charlotte Chords & Tabs

Version: 3 Type: Bass Tab 0 ratings
1 star 2 stars 3 stars 4 stars 5 stars
comments

I Heard You Bass Tab

Ok.... This is my first tab... so if it sux... just email me at
Caroleabele@hotmail.com.... call me Charlotte.... i wuz reading another tab
of the same and it just didn't sound right so here's my version... (my guitar
could've been outa tune.... :)~ ...)

G|---------------------------------------------------------------------
D|---------------------------------------------------------------------
A|--3-3-3-3-3-3-3-3----------------------------------------------------
E|-----------------3-3-3-3-3-3-3-3-0-0-0-0-0-0-0-0-1-1-1-1-1-1-1-1-----

Verse

G|---------------------------------------------------------------------
D|---------------------------------------------------------------------
A|--3-3-3-3-3-3-3-3----------------------------------------------------
E|-----------------3-3-3-3-3-3-3-3-7-7-7-7-7-7-7-7-8-8-8-8-8-8-8-8-----2x
[ Tab from: http://www.guitartabs.cc/tabs/g/good_charlotte/i_heard_you_btab_ver_3.html ]
G|---------------------------------------------------------------------
D|---------------------------------------------------------------------
A|--3-3-3-3-3-3-3-3----------------------------------------------------
E|-----------------3-3-3-3-3-3-3-3-0-0-0-0-0-0-0-0-1-1-1-1-1-1-1-1-----

It switches back & forth between the two.... if i'm right.....

and...... somethin i didn't catch... and then

Chorus

G|----------------------------------------------------------------------
D|----------------------------------------------------------------------
A|-3--------------------------------------------------------------------
E|----------3--------0--------1-----------------------------------------4x

I honestly hope u like it... it might suk.... so email me to make me feel
bad..... my e-mail's at the top!!!! I'm out.... So Rock on.... Charlotte..
Comments