Good Charlotte - I Heard You Chords & Tabs

 

I Heard You Chords & Tabs

Good Charlotte Chords & Tabs

Version: 2 Type: Bass Tab 0 ratings
1 star 2 stars 3 stars 4 stars 5 stars
comments

I Heard You Bass Tab

   
-------------------------------------------------------------------------------
			     Good Charlotte - I Heard You
-------------------------------------------------------------------------------

Tabbed By : fake_sk8r182
e-mail: ihatehearsay@hotmail.com

Tuning:Standard

Intro

G|--------------------------------------------------------------------------|
D|--------------------------------------------------------------------------|
A|--5-5-5-5-5-5-5-5---------------------------------------------------------|
E|-----------------5-5-5-5-5-5-5-5-2-2-2-2-2-2-2-2-3-3-3-3-3-3-3-3----------|x2
Verse 
G|---------------------------------------------------------------------------|
D|---------------------------------------------------------------------------|
A|--5-5-5-5-5-5-5-5----------------------------------------------------------|
E|------------------5-5-5-5-5-5-5-5-2-2-2-2-2-2-2-2-3-3-3-3-3-3-3-3----------|
[ Tab from: http://www.guitartabs.cc/tabs/g/good_charlotte/i_heard_you_btab_ver_2.html ]
G|------------------------------------------------------------------------------
D|------------------------------------------------------------------------------
A|10-10-10-10-10-10-10-10-------------------------------------------------------
E|-----------------------10-10-10-10-10-10-10-10-6-6-6-6-6-6-6-6-7-7-7-7-7-7-7-7
Chorus
G|---------------------------------------------------------------------------|
D|---------------------------------------------------------------------------|
A|-5-------------------------------------------------------------------------|
E|---------5-------2-------3-------------------------------------------------|x4
For the bridge just play the intro

This is an easy song 2 play which sounds cool at the same time,
if you've got any sugesstions my e-mail is at the top.

| /  slide up
| \  slide down
| h  hammer-on
| p  pull-off
| ~  vibrato
| +  harmonic
| x  Mute note
===============================================================================
Comments