Good Charlotte - Hold On Chords & Tabs

 

Hold On Chords & Tabs

Good Charlotte Chords & Tabs

Version: 8 Type: Tab 0 ratings
1 star 2 stars 3 stars 4 stars 5 stars
comments

Hold On Tab

   
#----------------------------------PLEASE NOTE--------------------------------#
#This file is the author's own work and represents their interpretation of the#
#song. You may only use this file for private study, scholarship, or research.#
#-----------------------------------------------------------------------------#
#-----------------------------------------------------------------------------#
#                         HOLD ON - GOOD CHARLOTTE                            #
#-----------------------------------------------------------------------------#

Here is a complete Tab of the song Hold On by Good Charlotte from their
Album "The Young and The Hopeless". This is a great song of Good Charlotte for me
it's and inspiring song nice blending of guitars nice video too huh! I would like
to dedicate this song to Melissa Salazar.

Tabbed by: Jonathan "oNaTs" A. Carmona
Email:jon2_83@yahoo.com

Tuning: Down Half Step
        Gtr 1(Eb,Ab,Db,Gb,Bb,Eb)
        Gtr 2(Eb,Ab,Db,Gb,Bb,Eb)


Intro:

(Gtr 1) (x2)

eb|---------0----------------0--------------------2--------3-2-0--------------|
Bb|-----3-----3---3------3------3---3-------3--------3-----------3------------|
Gb|-------2-----2-----0----0------0------2-----2--------2---------------------|
Db|---0---------------0------------------0------------------------------------|
Ab|---------------------------------------------------------------------------|
Eb|---------------------------------------------------------------------------|

(Gtr 2) (on 2nd time only)

eb|---2--3-/-5--3--2--3-/-5-/-7-\5--------------------------------------------|
Bb|---3--3---------3--3-------------------------------------------------------|
Gb|---2------------2----------------------------------------------------------|
Db|---------------------------------------------------------------------------|
Ab|---------------------------------------------------------------------------|
Eb|---------------------------------------------------------------------------|

Verse 1

(Gtr 1) (x4)

eb|---------0----------------0--------------------2--------3-2-0--------------|
Bb|-----3-----3---3------3------3---3-------3--------3-----------3------------|
Gb|-------2-----2-----0----0------0------2-----2--------2---------------------|
Db|---0---------------0------------------0------------------------------------|
Ab|---------------------------------------------------------------------------|
Eb|---------------------------------------------------------------------------|

(Gtr 2) (on 3rd time only)(x2)

eb|---2--3-/-5--3--2--3-/-5-/-7-\5--------------------------------------------|
Bb|---3--3---------3--3-------------------------------------------------------|
Gb|---2------------2----------------------------------------------------------|
Db|---------------------------------------------------------------------------|
Ab|---------------------------------------------------------------------------|
Eb|---------------------------------------------------------------------------|

Pre-Chorus

(Gtr 1)

eb|-----------------2-2-0-2-3-2-0-0--------------------------------------------|
Bb|-----------------3-3-3-3-3-3-3-3--------------------------------------------|
Gb|---4-4-~---------2-2-2-2-2-2-2-2---4-4-~------------------------------------|
Db|---4-4-~--5-5-~--0-0-0-0-0-0-0-0---4-4-~--5-5-~--5-5-5-5-5-5-5-5-5-5--------|
Ab|---2-2-~--5-5-~--------------------2-2-~--5-5-~--5-5-5-5-5-5-5-5-5-5--------|
Eb|----------3-3-~---------------------------3-3-~--3-3-3-3-3-3-3-3-3-3--------|
                                                    . . . . . . . . . .



(Gtr 2)

eb|----------------------------------------------------------------------------|
Bb|----------------------------------------------------------------------------|
Gb|---4-4-~---------7-7-7-7-7-7-7-7---4-4-~------------------------------------|
Db|---4-4-~--5-5-~--7-7-7-7-7-7-7-7---4-4-~--5-5-~--5-5-5-5-5-5-5-5-5-5--------|
Ab|---2-2-~--5-5-~--5-5-5-5-5-5-5-5---2-2-~--5-5-~--5-5-5-5-5-5-5-5-5-5--------|
Eb|----------3-3-~---------------------------3-3-~--3-3-3-3-3-3-3-3-3-3--------|
                                                    . . . . . . . . . .

Chorus 1

(Both Gtrs)

eb|-----------------------------------------------------------------------|
Bb|-----------------------------------------------------------------------|
Gb|---7-7-7-7-7-7-7-------------------------------------------------------|
Db|---7-7-7-7-7-7-7---7-7-7-7-7-7-7---9-9-9-9-9-9-9---5-5-5-5-5-5-5-------|
Ab|---5-5-5-5-5-5-5---7-7-7-7-7-7-7---9-9-9-9-9-9-9---5-5-5-5-5-5-5-------|
Eb|-------------------5-5-5-5-5-5-5---7-7-7-7-7-7-7---3-3-3-3-3-3-3-------|

eb|-----------------------------------------------------------------------|
Bb|-----------------------------------------------------------------------|
Gb|---7-7-7-7-7-7-7-------------------------------------------------------|
Db|---7-7-7-7-7-7-7--7-7-7-7-7-7-7---9---9---9---9----4---5~--------------|
Ab|---5-5-5-5-5-5-5--7-7-7-7-7-7-7---9---9---9---9----4---5~--------------|
Eb|------------------5-5-5-5-5-5-5---7---7---7---7----2---3~--------------|


Verse 2

(Gtr 1) (x4)

eb|---------0----------------0--------------------2--------3-2-0--------------|
Bb|-----3-----3---3------3------3---3-------3--------3-----------3------------|
Gb|-------2-----2-----0----0------0------2-----2--------2---------------------|
Db|---0---------------0------------------0------------------------------------|
Ab|---------------------------------------------------------------------------|
Eb|---------------------------------------------------------------------------|

(Gtr 2) (on 3rd time only)(x2)

eb|--14-15-/-17--15--14-15-/-17-/-19-\17--------------------------------------|
Bb|--15-15-----------15-15----------------------------------------------------|
Gb|--14--------------14-------------------------------------------------------|
Db|---------------------------------------------------------------------------|
Ab|---------------------------------------------------------------------------|
Eb|---------------------------------------------------------------------------|

Pre-Chorus

(Gtr 1)

eb|-----------------2-2-0-2-3-2-0-0-----------------------------------------|
Bb|-----------------3-3-3-3-3-3-3-3-----------------------------------------|
Gb|---4-4-~---------2-2-2-2-2-2-2-2---4-4-~---------------------------------|
Db|---4-4-~--5-5-~--0-0-0-0-0-0-0-0---4-4-~--5-5-~--5-5-5-5-5-5-5-5-5-5-----|
Ab|---2-2-~--5-5-~--------------------2-2-~--5-5-~--5-5-5-5-5-5-5-5-5-5-----|
Eb|----------3-3-~---------------------------3-3-~--3-3-3-3-3-3-3-3-3-3-----|
                                                    . . . . . . . . . . 




(Gtr 2)

eb|-----------------------------------------------------------------------|
Bb|-----------------------------------------------------------------------|
Gb|---4-4-~---------7-7-7-7-7-7-7-7---4-4-~-------------------------------|
Db|---4-4-~--5-5-~--7-7-7-7-7-7-7-7---4-4-~--5-5-~--5-5-5-5-5-5-5-5-5-5---|
Ab|---2-2-~--5-5-~--5-5-5-5-5-5-5-5---2-2-~--5-5-~--5-5-5-5-5-5-5-5-5-5---|
Eb|----------3-3-~---------------------------3-3-~--3-3-3-3-3-3-3-3-3-3---|
                                                    . . . . . . . . . .  

Chorus 2

(Both Gtrs)

eb|-----------------------------------------------------------------------|
Bb|-----------------------------------------------------------------------|
Gb|---7-7-7-7-7-7-7-------------------------------------------------------|
Db|---7-7-7-7-7-7-7---7-7-7-7-7-7-7---9-9-9-9-9-9-9---5-5-5-5-5-5-5-------|
Ab|---5-5-5-5-5-5-5---7-7-7-7-7-7-7---9-9-9-9-9-9-9---5-5-5-5-5-5-5-------|
Eb|-------------------5-5-5-5-5-5-5---7-7-7-7-7-7-7---3-3-3-3-3-3-3-------|

eb|-----------------------------------------------------------------------|
Bb|-----------------------------------------------------------------------|
Gb|---7-7-7-7-7-7-7-------------------------------------------------------|
Db|---7-7-7-7-7-7-7---7-7-7-7-7-7-7---9-9-9-9-9-9-9---5-5-5-5-5-5-5-------|
Ab|---5-5-5-5-5-5-5---7-7-7-7-7-7-7---9-9-9-9-9-9-9---5-5-5-5-5-5-5-------|
Eb|-------------------5-5-5-5-5-5-5---7-7-7-7-7-7-7---3-3-3-3-3-3-3-------|

eb|-----------------------------------------------------------------------|
Bb|-----------------------------------------------------------------------|
Gb|---7-7-7-7-7-7-7-------------------------------------------------------|
Db|---7-7-7-7-7-7-7---7-7-7-7-7-7-7---9-9-9-9-9-9-9---5-5-5-5-5-5-5-------|
Ab|---5-5-5-5-5-5-5---7-7-7-7-7-7-7---9-9-9-9-9-9-9---5-5-5-5-5-5-5-------|
Eb|-------------------5-5-5-5-5-5-5---7-7-7-7-7-7-7---3-3-3-3-3-3-3-------|

eb|------------------------------------------------------------------------------|
Bb|------------------------------------------------------------------------------|
Gb|---7-7-7-7-7-7-7--------------------------------------------------------------|
Db|---7-7-7-7-7-7-7--7-7-7-7-7-7-7---9---9---9---9----4---5~-5-5-5-5-5-5-5-------|
Ab|---5-5-5-5-5-5-5--7-7-7-7-7-7-7---9---9---9---9----4---5~-5-5-5-5-5-5-5-------|
Eb|------------------5-5-5-5-5-5-5---7---7---7---7----2---3~-3-3-3-3-3-3-3-------|

eb|------------------------------------------------------------------------------|
Bb|------------------------------------------------------------------------------|
Gb|------------------------------------------------------------------------------|
Db|---9--9--9--9---4--5-~-5-5-5-5-5-5-5------------------------------------------|
Ab|---9--9--9--9---4--5-~-5-5-5-5-5-5-5------------------------------------------|
Eb|---7--7--7--7---2--3-~-3-3-3-3-3-3-3------------------------------------------|

Bridge

(Gtr 1)

eb|---------------------------------------------------------------------------|
Bb|---------------------------------------------------------------------------|
Gb|---6-6-6-6-6-6-6-6-7-7-7-7-7-7-7-7-----------------------------------------|
Db|---0-0-0-0-0-0-0-0-0-0-0-0-0-0-0-0-----------------------------------------|
Ab|---------------------------------------------------------------------------|
Eb|---------------------------------------------------------------------------|

(Both Gtrs)

eb|--------------------------------------------------------------------|
Bb|--------------------------------------------------------------------|
Gb|--------------------------------------------------------------------|
Db|-------------------------------------4-4-4-4-4-4-4-4-4-4-4-4--------|
Ab|-------------------------------------4-4-4-4-4-4-4-4-4-4-4-4--------|
Eb|-------------------------------------2-2-2-2-2-2-2-2-2-2-2-2--------|

(Gtr 1)
[ Tab from: http://www.guitartabs.cc/tabs/g/good_charlotte/hold_on_tab_ver_8.html ]
eb|---------------------------------------------------------------------------|
Bb|---------------------------------------------------------------------------|
Gb|---6-6-6-6-6-6-6-6-7-7-7-7-7-7-9-7-----------------------------------------|
Db|---0-0-0-0-0-0-0-0-0-0-0-0-0-0-0-0-----------------------------------------|
Ab|---------------------------------------------------------------------------|
Eb|---------------------------------------------------------------------------|


(Both Gtrs)

eb|--------------------------------------------------------------------|
Bb|--------------------------------------------------------------------|
Gb|--------------------------------------------------------------------|
Db|-------------------------------------4-4-4-4-4-4-4-4-4-4-4-4--------|
Ab|-------------------------------------4-4-4-4-4-4-4-4-4-4-4-4--------|
Eb|-------------------------------------2-2-2-2-2-2-2-2-2-2-2-2--------|

(Gtr 2)

eb|---------------------------------------------------------------------------|
Bb|--------14------14------14-------------------------------------------------|
Gb|-----14------14------14----------------------------------------------------|
Db|---0-------0-------0-------------------------------------------------------|
Ab|---------------------------------------------------------------------------|
Eb|---------------------------------------------------------------------------|

(Gtr 1)

eb|--------------------------------------------------------------------|
Bb|--------------------------------------------------------------------|
Gb|--------------------------------------------------------------------|
Db|-------------------------------------4-4-4-4-4-4-4-4-4-4-4-4--------|
Ab|-------------------------------------4-4-4-4-4-4-4-4-4-4-4-4--------|
Eb|-------------------------------------2-2-2-2-2-2-2-2-2-2-2-2--------|

(Gtr 2)

eb|---------------------------------------------------------------------------|
Bb|--------14------14------14-------------------------------------------------|
Gb|-----14------14------14----------------------------------------------------|
Db|---0-------0-------0-------------------------------------------------------|
Ab|---------------------------------------------------------------------------|
Eb|---------------------------------------------------------------------------|

(Gtr 1)

eb|--------------------------------------------------------------------|
Bb|--------------------------------------------------------------------|
Gb|--------------------------------------------------------------------|
Db|-------------------------------------4-4-4-4-4-4-4-4-4-4-4-4--------|
Ab|-------------------------------------4-4-4-4-4-4-4-4-4-4-4-4--------|
Eb|-------------------------------------2-2-2-2-2-2-2-2-2-2-2-2--------|


     (Gtr 1)

|eb|---------------------------------------------------------------------------|
|Bb|---------------------------------------------------------------------------|
|Gb|---6-6-6-6-6-6-6-6-7-7-7-7-7-7-7-7-----------------------------------------|
|Db|---0-0-0-0-0-0-0-0-0-0-0-0-0-0-0-0-----------------------------------------|
|Ab|---4-4-4-4-4-4-4-4-4-4-4-4-4-4-4-4-----------------------------------------|
|Eb|---------------------------------------------------------------------------|
|  | 
|  |  (Gtr 2)
|  |
|eb|---------------------------------------------------------------------------|
|Bb|--------14------14------14-------------------------------------------------|
|Gb|-----14------14------14----------------------------------------------------|
|Db|---0-------0-------0-------------------------------------------------------|
|Ab|---------------------------------------------------------------------------|
|Eb|---------------------------------------------------------------------------|

(Gtr 1)

eb|--------------------------------------------------------------------|
Bb|--------------------------------------------------------------------|
Gb|--------------------------------------------------------------------|
Db|-------------------------------------4-4-4-4-4-4-4-4-4-4-4-4--------|
Ab|-------------------------------------4-4-4-4-4-4-4-4-4-4-4-4--------|
Eb|-------------------------------------2-2-2-2-2-2-2-2-2-2-2-2--------|

     (Gtr 1)

|eb|---------------------------------------------------------------------------|
|Bb|---------------------------------------------------------------------------|
|Gb|---6-6-6-6-6-6-6-6-7-7-7-7-7-7-7-7-----------------------------------------|
|Db|---0-0-0-0-0-0-0-0-0-0-0-0-0-0-0-0-----------------------------------------|
|Ab|---4-4-4-4-4-4-4-4-4-4-4-4-4-4-4-4-----------------------------------------|
|Eb|---------------------------------------------------------------------------|
|  | 
|  |  (Gtr 2)
|  |
|eb|---------------------------------------------------------------------------|
|Bb|--------14------14------14-------------------------------------------------|
|Gb|-----14------14------14----------------------------------------------------|
|Db|---0-------0-------0-------------------------------------------------------|
|Ab|---------------------------------------------------------------------------|
|Eb|---------------------------------------------------------------------------|

(Both Gtrs)

eb|--------------------------------------------------------------------|
Bb|--------------------------------------------------------------------|
Gb|--------------------------------------------------------------------|
Db|-------------------------------------4-4-4-4-4-4-5-5-5-5-5-5--------|
Ab|-------------------------------------4-4-4-4-4-4-5-5-5-5-5-5--------|
Eb|-------------------------------------2-2-2-2-2-2-3-3-3-3-3-3--------|

Chorus 3

(Both Gtrs)

eb|-----------------------------------------------------------------------|
Bb|-----------------------------------------------------------------------|
Gb|---7-7-7-7-7-7-7-------------------------------------------------------|
Db|---7-7-7-7-7-7-7---7-7-7-7-7-7-7---9-9-9-9-9-9-9---5-5-5-5-5-5-5-------|
Ab|---5-5-5-5-5-5-5---7-7-7-7-7-7-7---9-9-9-9-9-9-9---5-5-5-5-5-5-5-------|
Eb|-------------------5-5-5-5-5-5-5---7-7-7-7-7-7-7---3-3-3-3-3-3-3-------|

eb|-----------------------------------------------------------------------|
Bb|-----------------------------------------------------------------------|
Gb|---7-7-7-7-7-7-7-------------------------------------------------------|
Db|---7-7-7-7-7-7-7---7-7-7-7-7-7-7---9-9-9-9-9-9-9---5-5-5-5-5-5-5-------|
Ab|---5-5-5-5-5-5-5---7-7-7-7-7-7-7---9-9-9-9-9-9-9---5-5-5-5-5-5-5-------|
Eb|-------------------5-5-5-5-5-5-5---7-7-7-7-7-7-7---3-3-3-3-3-3-3-------|

eb|-----------------------------------------------------------------------|
Bb|-----------------------------------------------------P-----------------|
Gb|---7-7-7-7-7-7-7-------------------------------------A-----------------|
Db|---7-7-7-7-7-7-7---7-7-7-7-7-7-7---9-9-9-9-9-9-9---5-U-----------------|
Ab|---5-5-5-5-5-5-5---7-7-7-7-7-7-7---9-9-9-9-9-9-9---5-S-----------------|
Eb|-------------------5-5-5-5-5-5-5---7-7-7-7-7-7-7---3-E-----------------|

eb|-----------------------------------------------------------------------|
Bb|-----------------------------------------------------------------------|
Gb|---7-7-7-7-7-7-7-------------------------------------------------------|
Db|---7-7-7-7-7-7-7---7-7-7-7-7-7-7---9-9-9-9-9-9-9---5-5-5-5-5-5-5-------|
Ab|---5-5-5-5-5-5-5---7-7-7-7-7-7-7---9-9-9-9-9-9-9---5-5-5-5-5-5-5-------|
Eb|-------------------5-5-5-5-5-5-5---7-7-7-7-7-7-7---3-3-3-3-3-3-3-------|

eb|-----------------------------------------------------------------------|
Bb|-----------------------------------------------------------------------|
Gb|---7-7-7-7-7-7-7-------------------------------------------------------|
Db|---7-7-7-7-7-7-7---7-7-7-7-7-7-7---9-9-9-9-9-9-9---5-5-5-5-5-5-5-------|
Ab|---5-5-5-5-5-5-5---7-7-7-7-7-7-7---9-9-9-9-9-9-9---5-5-5-5-5-5-5-------|
Eb|-------------------5-5-5-5-5-5-5---7-7-7-7-7-7-7---3-3-3-3-3-3-3-------|

eb|------------------------------------------------------------------------------|
Bb|------------------------------------------------------------------------------|
Gb|---7-7-7-7-7-7-7--------------------------------------------------------------|
Db|---7-7-7-7-7-7-7--7-7-7-7-7-7-7---9---9---9---9----4---5~-5-5-5-5-5-5-5-------|
Ab|---5-5-5-5-5-5-5--7-7-7-7-7-7-7---9---9---9---9----4---5~-5-5-5-5-5-5-5-------|
Eb|------------------5-5-5-5-5-5-5---7---7---7---7----2---3~-3-3-3-3-3-3-3-------|

eb|-----------------------------------------------------------------------|
Bb|-----------------------------------------------------------------------|
Gb|-----------------------------------------------------------------------|
Db|---9--9--9--9---4--5-~-------------------------------------------------|
Ab|---9--9--9--9---4--5-~-------------------------------------------------|
Eb|---7--7--7--7---2--3-~-------------------------------------------------|

Outro

(Gtr 2)

eb|-----------------------------------------------------------------------|
Bb|--------14------14------14--14~----------------------------------------|
Gb|-----14------14------14-----14~----------------------------------------|
Db|---0-------0-------0--------0-~----------------------------------------|
Ab|-----------------------------------------------------------------------|
Eb|-----------------------------------------------------------------------|


Lyrics:

This world
This world is cold
But you don't
You don't have to go
You're feeling sad, you're feeling lonely, and no one seems to care
You're mother's gone and your father hits you
This pain you cannot bear

But we all bleed the same way as you do
And we all have the same things to go through

Hold on if you feel like letting go
Hold on it gets better than you know

Your days
You say they're way too long
And your nights
You can't sleep at all
Hold on
And you're not sure what you're waiting for, but you don't want to no more
And you're not sure what you're looking for, but you don't want to no more

But we all bleed the same way as you do
And we all have the same things to go through

Hold on if you feel like letting go
Hold on it gets better than you know
Don't stop looking, you're one step closer
Don't stop searching, it's not over
Hold on

What are you looking for?
What are you waiting for?
Do you know what you're doing to me?
Go ahead...What are you waiting for?

Hold on if you feel like letting go
Hold on it gets better than you know
Don't stop looking, you're one step closer
Don't stop searching, it's not over
Hold on if you feel like letting go
Hold on it gets better than you know
Hold on

| /  slide up
| \  slide down
| ~  let ring
| .  Mute note

===============================================================================
Comments