Good Charlotte - Hold On Chords & Tabs

 

Hold On Chords & Tabs

Good Charlotte Chords & Tabs

Version: 6 Type: Tab 0 ratings
1 star 2 stars 3 stars 4 stars 5 stars
comments

Hold On Tab

   
Intro/Verse

Gtr 1
E------------------------------------------
B--------4-----------------4---------------
G----6-----6---6-------6-----6-----6-------
D------6-----6-----------6------6----------
A--4-----------------4---------------------
E------------------------------------------

E------------------------------------------
B--------4---7-6-4-------------------------
G----6-----6-------6---6-------------------
D------6-------------6---------------------
A--4---------------------------------------
E------------------------------------------

Gtr 2
E------------------------------------------
B---5/6-7--7/9-7--5/6-7-9/11/9-------------
G------------------------------------------
D------------------------------------------
A------------------------------------------
E------------------------------------------


Pre-chorus

Gtr 1
E------------------------------------------
B------------------------------------------
G----------------6~------------------------
D----6~----4~----6~-----6~----4~-----------
A----6~----4~----4~-----6~----4~-----------
E----4~----2~-----------4~----2~-----------

E------------------------------------------
B------------------------------------------
G------------------------------------------
D----4-4-4-4-4-4-4-4-4-4-4-4-4-4-4-4-------
A----4-4-4-4-4-4-4-4-4-4-4-4-4-4-4-4-------
E----2-2-2-2-2-2-2-2-2-2-2-2-2-2-2-2-------
  PM * * * * * * * * * * * *


Gtr 2
E------------------------------------------
B--6--4--6-7-6-4---------------------------
G----------------6-------------------------
D------------------------------------------
A------------------------------------------
E------------------------------------------


Chorus

Both Guitars
E---------------------------------
B---------------------------------
G-6-6-6-6-6-6-6-6-----------------
D-6-6-6-6-6-6-6-6-6-6-6-6-6-6-6-6-
A-4-4-4-4-4-4-4-4-6-6-6-6-6-6-6-6-
E-----------------4-4-4-4-4-4-4-4-

E---------------------------------
B---------------------------------
G---------------------------------
D-8-8-8-8-8-8-8-8-4-4-4-4-4-4-4-4-
A-8-8-8-8-8-8-8-8-4-4-4-4-4-4-4-4-
E-6-6-6-6-6-6-6-6-2-2-2-2-2-2-2-2-

E---------------------------------
B---------------------------------
G-6-6-6-6-6-6-6-6-----------------
D-6-6-6-6-6-6-6-6-6-6-6-6-6-6-6-6-
A-4-4-4-4-4-4-4-4-6-6-6-6-6-6-6-6-
E-----------------4-4-4-4-4-4-4-4-

E---------------------------------
B---------------------------------
G---------------------------------
D-8-8-8-8--3-4--------------------
A-8-8-8-8--3-4--------------------
E-6-6-6-6--1-2--------------------


Verse


Pre-Chorus


Chorus 2

Both Guitars
E---------------------------------
B---------------------------------
G-6-6-6-6-6-6-6-6-----------------
D-6-6-6-6-6-6-6-6-6-6-6-6-6-6-6-6-
A-4-4-4-4-4-4-4-4-6-6-6-6-6-6-6-6-
E-----------------4-4-4-4-4-4-4-4-

E---------------------------------
B---------------------------------
G---------------------------------
D-8-8-8-8-8-8-8-8-4-4-4-4-4-4-4-4-
A-8-8-8-8-8-8-8-8-4-4-4-4-4-4-4-4-
E-6-6-6-6-6-6-6-6-2-2-2-2-2-2-2-2-

E---------------------------------
B---------------------------------
G-6-6-6-6-6-6-6-6-----------------
D-6-6-6-6-6-6-6-6-6-6-6-6-6-6-6-6-
A-4-4-4-4-4-4-4-4-6-6-6-6-6-6-6-6-
E-----------------4-4-4-4-4-4-4-4-

E---------------------------------
B---------------------------------
G---------------------------------
D-8-8-8-8-8-8-8-8-4-4-4-4-4-4-4-4-
A-8-8-8-8-8-8-8-8-4-4-4-4-4-4-4-4-
E-6-6-6-6-6-6-6-6-2-2-2-2-2-2-2-2-

E---------------------------------
B---------------------------------
G-6-6-6-6-6-6-6-6-----------------
D-6-6-6-6-6-6-6-6-6-6-6-6-6-6-6-6-
A-4-4-4-4-4-4-4-4-6-6-6-6-6-6-6-6-
E-----------------4-4-4-4-4-4-4-4-

E---------------------------------
B---------------------------------
G---------------------------------
D-8-8-8-8-8-8-8-8-4-4-4-4-4-4-4-4-
A-8-8-8-8-8-8-8-8-4-4-4-4-4-4-4-4-
E-6-6-6-6-6-6-6-6-2-2-2-2-2-2-2-2-

E---------------------------------
B---------------------------------
G---------------------------------
D-8-8-8-8--3-4-4-4-4-4-4-4-4------
A-8-8-8-8--3-4-4-4-4-4-4-4-4------
E-6-6-6-6--1-2-2-2-2-2-2-2-2------
[ Tab from: http://www.guitartabs.cc/tabs/g/good_charlotte/hold_on_tab_ver_6.html ]
E---------------------------------
B---------------------------------
G---------------------------------
D-8-8-8-8--3-4-4-4-4-4-4-4-4------
A-8-8-8-8--3-4-4-4-4-4-4-4-4------
E-6-6-6-6--1-2-2-2-2-2-2-2-2------


Bridge Part 1

Gtr 1
E------------------------------------------------
B------------------------------------------------
G--5-5v-5v-5v-5v-5v-5v-5v-6v-6v-6v-6v-6v-6v-6v-6v
D--x-x--x--x--x--x--x--x--x--x--x--x--x--x--x--x-
A--4-4--4--4--4--4--4--4--4--4--4--4--4--4--4--4-
E------------------------------------------------

E------------------------------------
B------------------------------------
G------------------------------------
D--3-3-3-3-3-3-3-3-3-3-3-3-3-3-3-3-3-
A--3-3-3-3-3-3-3-3-3-3-3-3-3-3-3-3-3-
E--1-1-1-1-1-1-1-1-1-1-1-1-1-1-1-1-1-

E------------------------------------------------
B------------------------------------------------
G--5-5v-5v-5v-5v-5v-5v-5v-6v-6v-6v-6v-6v-6v-6v-6v
D--x-x--x--x--x--x--x--x--x--x--x--x--x--x--x--x-
A--4-4--4--4--4--4--4--4--4--4--4--4--4--4--4--4-
E------------------------------------------------

E------------------------------------
B------------------------------------
G------------------------------------
D--3-3-3-3-3-3-3-3-3-3-3-3-3-3-3-3-3-
A--3-3-3-3-3-3-3-3-3-3-3-3-3-3-3-3-3-
E--1-1-1-1-1-1-1-1-1-1-1-1-1-1-1-1-1-

Bridge Part 2

Gtr 2 (x4)
E------8------8------8------8--------------
B----9------9------9------9----------------
G--6------6------6------6------------------
D------------------------------------------
A------------------------------------------
E------------------------------------------

Gtr 1 (x2)
E--------------------------------------
B--------------------------------------
G--------------------------------------
D------------------------------3-------
A------------------------------3-(x16)-
E------------------------------1-------
Then...
E--------------------------------------------------
B--------------------------------------------------
G--5-5v-5v-5v-5v-5v-5v-5v-6v-6v-6v-6v-6v-6v-6v-6v--
D--x-x--x--x--x--x--x--x--x--x--x--x--x--x--x--x--3
A--4-4--4--4--4--4--4--4--4--4--4--4--4--4--4--4--3(x16)
E-------------------------------------------------1

E------------------------------------------------
B------------------------------------------------
G--5-5v-5v-5v-5v-5v-5v-5v-6v-6v-6v-6v-6v-6v-6v-6v
D--x-x--x--x--x--x--x--x--x--x--x--x--x--x--x--x-
A--4-4--4--4--4--4--4--4--4--4--4--4--4--4--4--4-
E------------------------------------------------

E--------------------------------------------------
B--------------------------------------------------
G--------------------------------------------------
D--3-3-3-3-3-3-3-3-4-4-4-4-4-4-4-4-4-4-4-4-4-4-4-4-
A--3-3-3-3-3-3-3-3-4-4-4-4-4-4-4-4-4-4-4-4-4-4-4-4-
E--1-1-1-1-1-1-1-1-2-2-2-2-2-2-2-2-2-2-2-2-2-2-2-2-


Chorus 

Both Guitars
E---------------------------------
B---------------------------------
G-6-6-6-6-6-6-6-6-----------------
D-6-6-6-6-6-6-6-6-6-6-6-6-6-6-6-6-
A-4-4-4-4-4-4-4-4-6-6-6-6-6-6-6-6-
E-----------------4-4-4-4-4-4-4-4-

E---------------------------------
B---------------------------------
G---------------------------------
D-8-8-8-8-8-8-8-8-4-4-4-4-4-4-4-4-
A-8-8-8-8-8-8-8-8-4-4-4-4-4-4-4-4-
E-6-6-6-6-6-6-6-6-2-2-2-2-2-2-2-2-

E---------------------------------
B---------------------------------
G-6-6-6-6-6-6-6-6-----------------
D-6-6-6-6-6-6-6-6-6-6-6-6-6-6-6-6-
A-4-4-4-4-4-4-4-4-6-6-6-6-6-6-6-6-
E-----------------4-4-4-4-4-4-4-4-

E---------------------------------
B---------------------------------
G---------------------------------
D-8-8-8-8-8-8-8-8-4-4-4-4-4-4-4-4-
A-8-8-8-8-8-8-8-8-4-4-4-4-4-4-4-4-
E-6-6-6-6-6-6-6-6-2-2-2-2-2-2-2-2-

E---------------------------------
B---------------------------------
G-6-6-6-6-6-6-6-6-----------------
D-6-6-6-6-6-6-6-6-6-6-6-6-6-6-6-6-
A-4-4-4-4-4-4-4-4-6-6-6-6-6-6-6-6-
E-----------------4-4-4-4-4-4-4-4-

E---------------------------------
B---------------------------------
G---------------------------------
D-8-8-8-8-8-8-8-8-4---------------
A-8-8-8-8-8-8-8-8-4---------------
E-6-6-6-6-6-6-6-6-2---------------


Then play Chorus 2


Ending 
E------8------8------8------8--------------
B----9------9------9------9-9--------------
G--6------6------6------6---6--------------
D------------------------------------------
A------------------------------------------
E------------------------------------------
Comments