Good Charlotte - Hold On Chords & Tabs

 

Hold On Chords & Tabs

Good Charlotte Chords & Tabs

Version: 5 Type: Tab 0 ratings
1 star 2 stars 3 stars 4 stars 5 stars
comments

Hold On Tab

this is the intro of the song

guitar 1
eb-------0--------\--------------------------2--------3---2---0-----------
Bb---3------3---3--\---------------------3------3---3-------------2-------
Gb-----2------2----/ Play this 2x then-----2------2-----------------------
Db-0--------------/--------------------0----------------0---0---0---------
Ab------------------------------------------------------------------------
Eb------------------------------------------------------------------------

guitar 2 (strum lightly)
eb-2-3-3-2-23-5/7\5-------
Bb-3-3-3-3-33-------------
Gb-2-2-2-2-22-------------
Db------------------------
Ab------------------------
Eb------------------------


the tabs in the stanza is the same as in the intro 

[ Tab from: http://www.guitartabs.cc/tabs/g/good_charlotte/hold_on_tab_ver_5.html ]
refrain:
eb-0--3-----------2--------3---2---0-------
Bb-2--3-------3------3---3-------------2---
Gb-2--0---------2------2-------------------
Db-2--0-----0----------------0---0---0-----
Ab-0--2------------------------------------
Eb----3------------------------------------


chorus:
eb------------------------------------------------
Bb------------------------------------------------
Gb-7---4----\---------------------------4444------
Db-7-7-4-5---\--------------------------4444-4-5--
Ab-5-7-2-5---/strum each chord 8x then--2222-4-5--
Eb---5---3--/--------------------------------2-3--


                          
bridge:                    
eb-------------------------0\-
Bb-------------------------7-\
Gb-4444---------\----------6-/you'll be strumming this a couple of times
Db-4444-4-55555--\----------/
Ab-2222-4-55555--/Play 2x-----
Eb------2-33333-/-------------

eb-------------------------------------
Bb-------12-\--------------------------
Gb----12-----\-------------------4\----
Db-12--------/Play this 4x-then--4-\---
Ab----------/--------------------2-/strum this couple of times
Eb--------------------------------/----


repeat chorus







tabbed by Paul Anthony Bulao
e-mail me if there are corrections in this tab 
stish_05@yahoo.com
Comments