Good Charlotte - Hold On Chords & Tabs

 

Hold On Chords & Tabs

Good Charlotte Chords & Tabs

Version: 3 Type: Tab 0 ratings
1 star 2 stars 3 stars 4 stars 5 stars
comments

Hold On Tab

   
Alright G.C. is a great band this is a simple song do it right n there's no
problems, i'd tell u this is my first tab but that crap dont matter, does it
and i wont waste my time tellin u who i am or anything other than this song
so here we go ...

   tune down half a step                     

                                HOLD ON
by : Good Charlotte
Tab by: Ryan Sloan a.k.a hot sloanie

Intro ~
e/ ----------------0--------------/  e/------------0------------------
A/ -----------3-----------3------3/  A/-------3-------3-----3------3--
D/ -------------2-----2------2----/  D/-0--------0-------0-----0------
G/ ---------0---------------------/  G/-0-----------------------------
B/ -------------------------------/  B/-------------------------------
E/ -------------------------------/  E/-------------------------------

e/ --------2--------0------------------- e/-2----3/5---3-
A/ -------------------------3-------3--- A/-3----3/5---3-
D/ -----2-------2-------2-------2------- D/--------------
G/ ------------------------------------- G/--------------
B/ ------------------------------------- B/--------------
E/ ------------------------------------- E/--------------

PRE - CHORUS (we all bleed the same way . . .)
e/ -0--0--0-----------3--3--2--2--0--2----3--3--3-
A/ -2--2--2-----------3--3--3--3--3--3----3--3--3-
D/ -2--2--2-----------0--0--2--2--2--2----0--0--0-
G/ -2--2--2-----------0--0--0--0--0--0----0--0--0-
B/ -0--0--0-----------2--2--0--0--0--0----2--2--2-
E/ -------------------------0--0--0--0------------

Chorus P.M.(palm mute)\/ 
e/ -------------
A/ -------------
D/ -------------
G/ -5-5-5-5-5-5-
B/ -5-5-5-5-5-5-
E/ -5-5-5-5-5-5-
[ Tab from: http://www.guitartabs.cc/tabs/g/good_charlotte/hold_on_tab_ver_3.html ]
now hard           (Hold ________________ on
e/ ----------------------------------------------------------------
A/ ----------------------------------------------------------------
D/ -7-7-7-7-7-7-    -----------------------------------------------
G/ -7-7-7-7-7-7-    -0--0--0--0--0--0--0------------------9----4--5
B/ -5-5-5-5-5-5-    -0--0--0--0--0--0--0--4-4-4-4-4-4-4-4-9----4--5
E/ -5-5-5-5-5-5-    -0--0--0--0--0--0--0--7-7-7-7-7-7-7-7-9----4--5

(and your not sure wut ur waiting for but u dont want to kno more
e/ -14-15---17--15------14---17/19/17
A/ -15-15---17--15------15---17------
D/ ----------------------------------
G/ ----------------------------------
B/ ----------------------------------
E/ ----------------------------------

Mess wit this 
e/ ---------------------------------------------
A/ -------------------------------------7-------
D/ -6--6--6--6--6--6--6---7--7--7--7--7-7--6----
G/ -0--0--0--0--0--0--0---0--0--0--0--0-0--4----
B/ ----------------------------------------4----
E/ ----------------------------------------4----

e/ ---------------------------------------------
A/ ---------------------------------------------
D/ -6-6-6-6-6-6-6-------------------------------
G/ -4-4-4-4-4-4-4--0----0----0----0----0-----5--
B/ -4-4-4-4-4-4-4--4b---4b---4b---4b---4b----5--
E/ -4-4-4-4-4-4-4----------------------------5--

e/ ------------------------------
A/ ------14------14---14---------
D/ ---14------14------14---------
G/ -0-------0----------0---------
B/ ------------------------------
E/ ------------------------------

That's about it just mess wit this its a fun song to learn so just mest around
wit the stuff any question, hold them in coz i dont wanna hear anything from
anyone i want peace cuz u people suk  ..... PEACE
Comments